Oops, an error
Loading. Please wait.

Until The End Tab

version 1
version 1

Intro

Whole song

Interactive

20,633 views 6 this week
1 commentread comment
1 2 3 4 5
accurate
x 3
add to favorites
launch autoscroll
font size
0
reset
how to read this tab
guitar tuner
Autoscroll
slow
fast
+/-
esc
set tempo
stop
Help us to improve Ultimate-Guitar.com Take our survey!
×
Difficulty
Tuning
novice
D A D G B E
GUITAR 1 ZACKY V
GUITAR 2 SYNYSTER

(b)=bend


INTRO
GUITAR 1

E---------------------------------------------------------------------------|
B---------------------------------------------------------------------------|
G---------------------------------------------------------------------------|
D-4444444444444444--0000000000004444---4444444444444444---000000000000------|
A-4444444444444444--0000000000002222---4444444444444444---000000000000------|
D-4444444444444444--000000000000-------4444444444444444---000000000000------|


E---------------------------------------------------------------------------|
B---------------------------------------------------------------------------|
G---------------------------------------------------------------------------|
D-4444---222222224----------------------------------------------------------|
A-2222---222222224----------------------------------------------------------|
D---------------------------------------------------------------------------|

INTRO
GUITAR 2

fig 1
E---------------------------------------------------------------------------|
B-----------------------14(b)-11-12-14------14(b)-14------------------------|
G-----------13(b)-11-------------------11-------------11---11-13-14---16(b)-|
D-----9-11------------------------------------------------------------------|
A-9-12--------------12-------------------12---------------------------------|
D---------------------------------------------------------------------------|


fig 2
E---------------------------------------------------------------------------|
B-----------------------14(b)-11-12-14------14(b)-14------------------------|
G-----------13(b)-11-------------------11-------------11---11-13-14---16(b)-|
D-----9-11------------------------------------------------------------------|
A-9-12--------------12-------------------12---------------------------------|
D---------------------------------------------------------------------------|


E---------------------------------------------------------------------------|
B----------------------14-15-14-13----19------------------------------------|
G-11s13s11s10----18---------------------------------------------------------|
D---------------------------------------------------------------------------|
A---------------------------------------------------------------------------|
D---------------------------------------------------------------------------|

VERSE (NO GUITAR)


CHORUS ("dont change the way...")
E---------------------------------------------------------------------------|
B---------------------------------------------------------------------------|
G---------------------------------------------------------------------------|
D--4444444-0-0000000--2222222--4--4444444-----------------------------------|
A--4444444-0-0000000--2222222--2--2222222-----------------------------------|
D--4444444-0-0000000--2222222----------------X2-----------------------------|


repeat fig 1 and chorus


all i gots =]
Suggest correction
Give kudos to tab author, rate the tab!
1 2 3 4 5
comments
print report bad tab
1 comment total.
-1 reply
M.Vengeance 92 wrote on October 18 2008, 07:17 pm

dont you play the intro like...
e-----------
b-----------
g-------6v--
d---7-9-----
a-9---------
D-----------

instead of
e------------
b------------
g------------
d------9-11--
a-9-12-------
D------------

guest
You may want to rate the tab now too:
select rating
Wanna post a correction for this tab? Suggest correction