Oops, an error
Loading. Please wait.

Until The End Bass Tab

version 2
version 2

Whole song

Interactive

262 views 1 this week
no commentswrite comment
1 2 3 4 5
please rate
add to favorites
launch autoscroll
font size
0
reset
guitar tuner
Autoscroll
slow
fast
+/-
esc
set tempo
stop
Help us to improve Ultimate-Guitar.com Take our survey!
×
Author
Tuning
Teh D Bot 10,232
D A D G B E
G|-------------------------------------------------------------------|------------------|
D|o-----------------------------------------------------------------o|------------------|
A|o---------------------------------------------------------2-2-2-2-o|------------------|
D|--4-4-4-4-4-4-4-4-4-4-4-4-4-4-4-4-0-0-0-0-0-0-0-0-0-0-0-0----------|-3-3-3-3-3-3-3333-|
    1 + 2 + 3 + 4 + 1 + 2 + 3 + 4 + 1 + 2 + 3 + 4 + 1 + 2 + 3 + 4 +    1 + 2 + 3 + 4 +

Verse 0:29
G|--------------------------------------------------------------------|
D|o------------------------------------------------------------------o|
A|o--------------------------------------------------------------0-0-o|
D|--4-4-4-4\2-2-2-2/7-7-7-7/9-9-9-11\4-4-4-4-2-2-2-2-0-0-0-0-0-0------|
    1 + 2 + 3 + 4 + 1 + 2 + 3 + 4 +  1 + 2 + 3 + 4 + 1 + 2 + 3 + 4 +

Pre Chorus 0:53
G|----------------------------------|
D|----------------------------------|
A|----------------------------------|
D|-2-2-2-2-2-2-2-2-3-3-3-333-3-3676-|
   1 + 2 + 3 + 4 + 1 + 2 + 3 + 4 + 

Chorus 0:59
G|------------------------------------------------------------------|
D|------------------------------------------------------------------|
A|-----------------------------------------------2---2-2-2-5-4-5420-|
D|-4-4-4-444-4-440---0-0-000-0-00002-222---2-2-22-------------------|
   1 + 2 + 3 + 4 + 1 + 2 + 3 + 4 + 1 + 2 + 3 + 4 + 1 + 2 + 3 + 4 +

G|------------------------------------------------------------------|
D|------------------------------------------------------------------|
A|-----------------------------------------------2--22-2-222-2-2222-|
D|-4-4-4-444-4-440---0-0-000-0-0-0-2-2-2-222-2-22-------------------|
   1 + 2 + 3 + 4 + 1 + 2 + 3 + 4 + 1 + 2 + 3 + 4 + 1 + 2 + 3 + 4 +

Interlude
G|-----------------------------------------------------------------|
D|-----------------------------------------------------------------|
A|---------------------------------------------------------2-2-2-2-|
D|-4-4-4-4-4-4-4-4-4-4-4-4-4-4-4-4-0-0-0-0-0-0-0-0-0-0-0-0---------|
   1 + 2 + 3 + 4 + 1 + 2 + 3 + 4 + 1 + 2 + 3 + 4 + 1 + 2 + 3 + 4 +

Verse 1:35
G|--------------------------------------------------------------------|
D|o------------------------------------------------------------------o|
A|o--------------------------------------------------------------0-0-o|
D|--4-4-4-4\2-2-2-2/7-7-7-7/9-9-9-11\4-4-4-4-2-2-2-2-0-0-0-0-0-0------|
    1 + 2 + 3 + 4 + 1 + 2 + 3 + 4 +  1 + 2 + 3 + 4 + 1 + 2 + 3 + 4 +

Pre-chorus 1:59
G|----------------------------------|
D|----------------------------------|
A|----------------------------------|
D|-2-2-2-2-2-2-2-2-3-3-3-333-3-3676-|
   1 + 2 + 3 + 4 + 1 + 2 + 3 + 4 + 

Chorus 2:05
G|------------------------------------------------------------------|
D|------------------------------------------------------------------|
A|-----------------------------------------------2---2-2-2-5-4-5420-|
D|-4-4-4-444-4-440---0-0-000-0-00002-222---2-2-22-------------------|
   1 + 2 + 3 + 4 + 1 + 2 + 3 + 4 + 1 + 2 + 3 + 4 + 1 + 2 + 3 + 4 +

G|------------------------------------------------------------------|
D|------------------------------------------------------------------|
A|-----------------------------------------------2--22-2-222-2-2222-|
D|-4-4-4-444-4-440---0-0-000-0-0-0-2-222--22-2-22-------------------|
   1 + 2 + 3 + 4 + 1 + 2 + 3 + 4 + 1 + 2 + 3 + 4 + 1 + 2 + 3 + 4 +

Breakdown 2:29
G|-------------------------------------------------------------------|
D|o-----------------------------------------------------------------o|
A|o---------------------------------4-------------------------------o|
D|--4-----------3-------------------------------0--------------------|
    1 + 2 + 3 + 4 + 1 + 2 + 3 + 4 + 1 + 2 + 3 + 4 + 1 + 2 + 3 + 4 +


Guitar Solo 2:41
G|-----------------------------------------------------------------|
D|-----------------------------------------------------------------|
A|-------4---5---2-2-----5---4-----------4---5---2-2-----5---4-----|
D|-4-----------------------------4-4-----------------------------4-|
   1 + 2 + 3 + 4 + 1 + 2 + 3 + 4 + 1 + 2 + 3 + 4 + 1 + 2 + 3 + 4 +

G|------------------------------------------------------------------|
D|------------------------------------------------------------------|
A|-------4---5---2-2-----5---4-----------4---5---2-2-----5--44-4444-|
D|-4-----------------------------4-4--------------------------------|
   1 + 2 + 3 + 4 + 1 + 2 + 3 + 4 + 1 + 2 + 3 + 4 + 1 + 2 + 3 + 4 +

Bridge 3:05
G|------------------------------------------------------------------|
D|------------------------------------------------------------------|
A|-----------------0-0-0-0-2-2-2-2-----------------0-0-0-0-2-2-2222-|
D|-4-4-4-4-6-6-6-6-----------------4-4-4-4-2-2-2-2------------------|
   1 + 2 + 3 + 4 + 1 + 2 + 3 + 4 + 1 + 2 + 3 + 4 + 1 + 2 + 3 + 4 +

Bridge/Solo 3:17
G|-------------------------------------------------------------------|
D|o-----------------------------------------------------------------o|
A|o---------------------------------4-------------------------------o|x8
D|--4-----------3-------------------------------0--------------------|
    1 + 2 + 3 + 4 + 1 + 2 + 3 + 4 + 1 + 2 + 3 + 4 + 1 + 2 + 3 + 4 +

3:53
G|---------------------------------------------------------------------------------|
D|---------------------------------------------------------------------------------|
A|---------------3---3-3-333-3-3-3-5-5-5---5-5-5-7---7-7-7-7-7-7\2-----------------|
D|-4--44-444-4-4-------------------------------------------------------------------|
   1 + 2 + 3 + 4 + 1 + 2 + 3 + 4 + 1 + 2 + 3 + 4 + 1 + 2 + 3 + 4 + 1 + 2 + 3 + 4 +

Outro 4:08
G|-----------------------------------------------------------------|
D|-----------------------------------------------------------------|
A|-3-3-3-3-3-3-3-3-2-2-2-2-2-2-2-2-3-3-3-3-3-3-3-3-2-2-2-2-2-2-2-2-|
D|-----------------------------------------------------------------|
   1 + 2 + 3 + 4 + 1 + 2 + 3 + 4 + 1 + 2 + 3 + 4 + 1 + 2 + 3 + 4 +

G|-----------------------------------------------------------------|
D|-----------------------------------------------------------------|
A|-3-3-3-3-3-3-3-3-2-2-2-2-2-2-2-2-3-3-3-3-3-3-3-2-----------------|
D|-----------------------------------------------------------------|
   1 + 2 + 3 + 4 + 1 + 2 + 3 + 4 + 1 + 2 + 3 + 4 + 1 + 2 + 3 + 4 +

Tabbed by Dave Vucko
Suggest correction
What's this?
You can suggest a correction to this tab. Community and Mods will review your correction and vote to approve or reject it.
comments
We did not receive enough feedback on this tab! Please rate:
print report bad tab
1 2 3 4 5
guest
You may want to rate the tab now too:
select rating
Please do not post tabs as comments. Select "correction" instead!