Oops, an error
Loading. Please wait.

Until The End Tab

version 2
version 2

Whole song

Interactive

29,878 views 33 this week
1 commentread comment
1 2 3 4 5
excellent!
x 17
add to favorites
launch autoscroll
font size
0
reset
how to read this tab
guitar tuner
Tab Pro tools
  • play this tab
  • loop segment
  • change instrument
  • show fretboard
  • metronome
×
Best way to learn
"Until The End"
Autoscroll
slow
fast
+/-
esc
set tempo
stop
Contributor
Difficulty
Tuning
intermediate
D A D G B E
Until The End A7X 2008 Diamonds in the rough.

INTRO LEAD
e--------------------------------------------------------------------------|
B----------------------------14b(15)-14----12-14---14b(15)-14--------------|
G------------11-13b(14)--11--------------15-----11-----------11--11-13-14--|
D----------11-------------11---------------------11------------------------|
A-----9--12----------------------------------------------------------------|
D--------------------------------------------------------------------------|

e----------/---------------------------------------------------------------|
B----------/-------------------------14b(15)-14---12-14---14b(15)-14-------|
G---14B(16)/----------11-13b(14)--11------------15-----11-----------11--11-|
D----------/--------11-------------11-------------------11-----------------|
A----------/---9--12-------------------------------------------------------|
D----------/---------------------------------------------------------------|

e------------------------------12-14/
B------------------14--14-15-12-----/
G-13-14---13h14p13------------------/
D----------------11-----------------/
A-----------------------------------/
D-----------------------------------/

INTRO RHYTHM
e--------------------------------------------------------------------------|
B--------------------------------------------------------------------------|
G--------------------------------------------------------------------------|
D---4--4--4--4--4--4--4--4--4--4--4--4--4--4--4--4--0--0--0--0--0--0--0--0-|
A---4--4--4--4--4--4--4--4--4--4--4--4--4--4--4--4--0--0--0--0--0--0--0--0-|
D---4--4--4--4--4--4--4--4--4--4--4--4--4--4--4--4--0--0--0--0--0--0--0--0-|

e-------------------------/------------------------------------------------|
B-------------------------/------------------------------------------------|
G---4--4--4--4--4--4--4--4/------------------------------------------------|
D---4--4--4--4--4--4--4--4/-4--4--4--4--4--4--4--4--4--4--4--4--4--4--4--4-|
A---2--2--2--2--2--2--2--2/-4--4--4--4--4--4--4--4--4--4--4--4--4--4--4--4-|
D-------------------------/-4--4--4--4--4--4--4--4--4--4--4--4--4--4--4--4-|

e--------------------------------------------------------------------------|
B--------------------------------------------------------------------------|
G---------------------------4--4--4--4--4--4--4--4-------------------------|
D---0--0--0--0--0--0--0--0--4--4--4--4--4--4--4--4-------------------------|
A---0--0--0--0--0--0--0--0--2--2--2--2--2--2--2--2--4--4--4--4--4--4--4--4-|
D---0--0--0--0--0--0--0--0--------------------------3--3--3--3--3--3--3--3-|

e--------/
B--------/
G--------/
D--4-----/
A--4-----/
D--4-----/

CHORUS
e--------------------------------------------------------/
B--------------------------------------------------------/
G--------------------------------------------4----4---4-4/      X2
D--4----4---4-4--0----0---0-0--2----2---2-2--4----4---4-4/
A--4----4---4-4--0----0---0-0--2----2---2-2--2----2---2-2/
D--4----4---4-4--0----0---0-0--2----2---2-2--------------/


INTRO REPEAT (Part ONE only. Before 1st set of /)

CHORUS REPEAT

CHORUS PART TWO (SOLO RHYTHM)
e---------------------------/
B---------------------------/
G---------------------------/
D--4--4--3--3--6--6--7--7--7/
A--4--4--3--3--4--4--5--5--5/
D--4--4--3--3--3--3--4--4--4/

Solo!!
e-------------------------------------------------------------------------|
B--------------17--18/(19)(19)\17-----------------------------------------|
G-11--13-14--16--16---------------18-16-18/(19)\18------------------------|
D-------------------------------------------------------------------------|
A-------------------------------------------------------------------------|
D-------------------------------------------------------------------------|

e----------------------13-------------------------------------------------|
B------------14/17\14--16/(17)\14-13/\/\----------------------------------|
G-11--13-14--------------------------------11--13-14----------------------|
D----------------------------------------------------12-14-12-11-12-11----|
A-------------------------------------------------------------------------|
D-------------------------------------------------------------------------|

e-------------------17--16--19-16-19-12-13/(14)---------------------------/
B-----------------14--14--14----------------------------------------------/
G---11--13-14-------------------------------------------------------------/
D-11----------12----------------------------------------------------------/
A-------------------------------------------------------------------------/
D-------------------------------------------------------------------------/

BRIDGE
e-------------------------|
B-------------------------|
G-------------------------|
D--4--4--6--6--7--7--9--9-|
A--4--4--6--6--7--7--9--9-|
D--4--4--6--6--7--7--9--9-|


REPEAT CHORUS PART TWO

SOLO 2
e-17-16-14------15/(16)\-13-14-16-14---------16/(17)\16-13--14------------|
B---------14-------------------------14------------------------14---------|
G-----------14-------------------------14-13---------------------14-13----|
D-------------16----------------------------------------------------------|
A-------------------------------------------------------------------------|
D-------------------------------------------------------------------------|

e-----16----16----16----16----16-------16----19----17----17-21/(22)\21----|
B---14----14----14----14----14--14---14----17----15----15-----------------|
G-11----13----13----13----13-------13----16----14----14-------------------|
D-------------------------------------------------------------------------|
A-------------------------------------------------------------------------|
D-------------------------------------------------------------------------|

e-----16----16----16----16----16-------16/(19)----19----/17----17---------|
B---14----14----14----14----14--14---14---------17----15-----15-----------|
G-11----13----13----13----13-------13---------16----14-----14-------------|
D-------------------------------------------------------------------------|
A-------------------------------------------------------------------------|
D-------------------------------------------------------------------------|


e--21/(22)\21-19-21-19--17---/
B----------------------------/
G----------------------------/
D----------------------------/
A----------------------------/
D----------------------------/

OUTRO
e-------------------/---------------------------/--------------------------/
B-------------------/---------------------------/--------------------------/
G----------5--7--9-4/--4--5--5--5--5--5--5--5--5/--4--4--4--4--4--4--4--4--/
D--4--4--4-5--7--9-4/--4--5--5--5--5--5--5--5--5/--4--4--4--4--4--4--4--4--/
A--4--4--4-3--5--7-2/--2--3--3--3--3--3--3--3--3/--2--2--2--2--2--2--2--2--/
D--4--4--4----------/---------------------------/--------------------------/

e--------------/
B--------------/
G--4-----------/
D--4-LET-RING--/
A--2-----------/
D--------------/
comments
print report bad tab
1 comment total.
0 reply
Gyaan.Stroke wrote on October 28 2009, 11:58 pm

Lovee It Good Job 5*

I want to post or [tab]
guest
You may want to rate the tab now too:
select rating
Please do not post tabs as comments. Select "correction" instead!