Oops, an error
Loading. Please wait.

Until The End tab

version 3
version 3

Whole song

  • This is the studio version, as featured on Avenged... Show more

Interactive

55 views 6 this week
no commentswrite comment
1 2 3 4 5
3 more votes to show rating
add to favorites
×
Save as Personal and add changes to this tab that will be seen only by you. Learn more ›
×
You can save this tab as Personal to edit and correct it or add notes. All changes will be seen only by you. Learn more »
launch autoscroll
font size
0
reset
how to read this tab
guitar tuner
edit
Autoscroll
slow
fast
+/-
esc
set tempo
stop
Tempo: 81 bpm.
Tuning: The 6th string is tuned down to D (Drop D)


Just to give you an idea, I put here some of the rhythm chords: (N.C.=No Chord)
F#5:              D5:              B5:           E5:      
     e|---|           e|---|          e|---|       e|---|
     B|---|           B|---|          B|---|       B|---|
     G|---|           G|---|          G|-(4)-|     G|---|
     D|---|           D|---|          D|- 4 -|     D|---|
     A|-4-|           A|-0-|          A|- 2 -|     A|-2-|
     D|-4-|           D|-0-|          D|---|       D|-2-|

During the intro the rhythm goes like this: F#5 (x8)  D5 (x6)  B5 (x1)
                                            F#5 (x8)  D5 (x6)  B5 (x1)  F#5 (x1)

During the bridge the rhythm goes like this: F#5 (x8)  D5 (x6)  B5 (x1)



[Intro]
**************************************************************************************************************
[Lead Guitar]                                                                                                
e|----------------------|---------------|--------------------------------|------------------|
B|----------------------|----------14br-|-12/13--14----------14br--------|------------------|
G|----------------13br--|-11------------|------------11---------------11-|-11/13---14---14b-|
D|--------11/12---------|-----11--------|----------------11--------------|------------------|
A|-9/11-----------------|---------------|--------------------------------|------------------|
D|----------------------|---------------|--------------------------------|------------------|

e|----------------------|---------------|--------------------------------|------------------|
B|----------------------|---------14br--|-12/13--14----------14b---------|------------------|
G|----------------13br--|-11------------|------------11---------------11-|-11/13---14---14b-|
D|--------11/12---------|-----11--------|----------------11--------------|------------------|
A|-9/11-----------------|---------------|--------------------------------|------------------|
D|----------------------|---------------|--------------------------------|------------------|

e|----------------------|-----------------|
B|-------------------14-|-14h15p14--13/19-|
G|-11h13p11---10--------|-----------------|
D|----------------------|-----------------|
A|----------------------|-----------------|
D|----------------------|-----------------|

**************************************************************************************************************


N.C.
Weekends on young and angry streets
N.C.
We meet, drink 'till trouble found us there
N.C.
Living life as without a care
N.C.
We've had our fights, been black and blue
N.C.
It's true, I've even gone to jail for you my friends
N.C.
Bet your life that I'd do it again

(Until the End)



F#5                       D5
Don't change the way you think of me

               E5   B5
We're from the same story

F#5                  D5
Life moves on, can't stay the same

            E5      B5
For some of us, I'm worried, yeah

[Bridge]
**************************************************************************************************************
[Lead Guitar]
e|----------------------|---------------|--------------------------------|---------------------------|
B|----------------------|---------14br--|-12/13--14----------14br--------|---------------------------|
G|----------------13br--|-11------------|------------11---------------11-|-11/13---14---14b----------|
D|--------11/12---------|-----11--------|----------------11--------------|----------------------16~~-|
A|-9/11-----------------|---------------|--------------------------------|---------------------------|
D|----------------------|---------------|--------------------------------|---------------------------|

**************************************************************************************************************

N.C.
While some have gone their separate ways
N.C.
There's some still caught up with the past
N.C.
And stead to move on, you're missing most of your life
N.C.
They say it's hard to stay the same
N.C.
When some fail, while other men seem to gain, but friends
N.C.
I'll be with you here until the end

(Until the End)


F#5                       D5
Don't change the way you think of me

               E5   B5
We're from the same story

F#5                  D5
Life moves on, can't stay the same

            E5      B5
For some of us, I'm worried

F#5               F5
We're all falling forward

     C#5         D5     
With no signs of slow

F#5         F5
Some moving faster

       C#5        D5
That's all that I wanted, I wanted


[Solo 1]
**************************************************************************************************************
[Lead Guitar]

e|--------------|------------------|---------------------|-------------------|---x-------------------|
B|--------------|------17------17b-|--17pbr--------------|--------------14br-|--15b--14--13h14p13h14-|
G|-9b--11b--12b-|-16------16-------|--------16--16--18br-|-9b--11b--12b------|---x-------------------|
D|--------------|------------------|---------------------|-------------------|---x-------------------|
A|--------------|------------------|---------------------|-------------------|---x-------------------|
D|--------------|------------------|---------------------|-------------------|---x-------------------|

e|----------------------------------|-------------------------|----17----16----19--16h17------|
B|----------------------------------|-------------------------|-14----14----14-----------17b+-|
G|-11--13--14-----------------------|----11--13--14-----------|-------------------------------|
D|-------------12--14--12--11h12p11-|-11-------------12h14p12-|-------------------------------|
A|----------------------------------|-------------------------|-------------------------------|
D|----------------------------------|-------------------------|-------------------------------|u

**************************************************************************************************************


  F#5       F#5
I know it's hard

     G#5     G#5
It's passing by

A5    A5
Memories

     B5      B5                       
Be out all night

   F#5             G#5
So reminisce won't bring you back

     A5                     B5        
Just look ahead and hold on tight

F#5               F5
We're all falling forward

     C#5         D5     
With no signs of slow

F#5         F5
Some moving faster

       C#5        D5
That's all that I wanted, I wanted

[Solo 2]:
**************************************************************************************************************

[Lead Guitar]
e|-17--16--14---------------14b-|-13--14--16--14h16p14-------------|-16b--16--12b--14-------------|
B|-------------14---------------|-----------------------14---------|-------------------14---------|
G|-----------------14---11------|---------------------------14--13-|-----------------------14--13-|
D|------------------------------|----------------------------------|------------------------------|
A|------------------------------|----------------------------------|------------------------------|
D|------------------------------|----------------------------------|------------------------------|


e|--------16--------16---------16--------16--------16-|---------16-----------19----------17---------21b-|
B|----14---------14---------14--------14--------14----|-----14-----------14----------14---------14------|
G|----------------------------------------------------|-------------------------------------------------|
D|-16--------16----------16--------16--------16-------|-16------------16----------16---------16---------|   x2
A|----------------------------------------------------|-------------------------------------------------|
D|----------------------------------------------------|-------------------------------------------------|


e|-19--21--18b-|
B|-------------|
G|-------------|
D|-------------|
A|-------------|
D|-------------|

**************************************************************************************************************


       F#5                C5            D5          
Don't change the way you think of me                     
                                                         
   E5              B5                                  
Oh yeah                                                  




C5                B5
Until the end

C5                B5
Until the end

C5                B5
Until the end

C5                B5
Until the end

**************************************************************************************************************

There are no particular effects used in this song.

*******************************
b   Bend
pb  Pre-bend
/   Slide up
~~  Vibrato
h   Hammer-on
p   Pull-off
+   Harmonic
br  Bend release
pbr Pre-bend release

*******************************

            
            
Suggest correction
Creating personal tab
Creating personal tab
You can edit any tab online and save it as your Personal.

You can edit, replace or remove any tab part or add personal notes – all changes will be seen only by you.

Personal tabs can be accessed anytime from any device, even offline.
Learn more »
Give kudos to tab author, rate the tab!
1 2 3 4 5
comments
print report bad tab
guest
You may want to rate the tab now too:
select rating
Wanna post a correction for this tab? Suggest correction