Oops, an error
Loading. Please wait.

Unwind The Chainsaw Tab

version 1
version 1

Whole song

7,317 views 30 this week
4 commentsread comments
1 2 3 4 5
accurate
x 4
add to favorites
launch autoscroll
font size
0
reset
how to read this tab
guitar tuner
Autoscroll
slow
fast
+/-
esc
set tempo
stop
Help us to improve Ultimate-Guitar.com Take our survey!
×
Author
Difficulty
Tuning
novice
D A D G B E
Intro:(Guitar 1) -Clean-
The 1st measure doesn't repeat!
e|-------10------|-------10----10---12------13-----------9----9--10-----12------|
B|-----10--10----|-----10--10----10---10--10--10--10---10--10--10--10-10--10-10-|
G|----10----10-x3|----10-----10----------10------10---9------9-------9------9---|
D|--/12----------|--12------------------------------11--------------------------|
A|---------------|---------------------------------PLAYED 2X--------------------|
D|---------------|--------------------------------------------------------------|

e|------10---10---12------13/17------13------------------------------------|
B|----11--11---11---11--11-----13--13--13--13------------------------------|
G|---10-----10--------10---------14------14--------------------------------|
D|-12----------------------------------------------------------------------|
A|-------------------------------------------------------------------------|
D|-------------------------------------------------------------------------|

e|-------15------17------18------18------17------15-------|
B|-----15--15--15--15--15--15--15--15--15--15--15--15--15-|
G|---14------15------15------15------15------15------15---|
D|-16-----------------------------------------------------|
A|--------------------------------------------------------|
D|--------------------------------------------------------|
continued..
e|---17------17------15------13-----|
B|-----13--13--13--13--13--13--13---|
G|-------14------14------14------14-|
D|----------------------------------|
A|----------------------------------|
D|----------------------------------|

e|--12-----13-----13----12----10----9----10--9-|
B|----9--9---9---9--9--9--9--9--9--9--9-9--9---|
G|-----9-------9-----9-----9------9----9----9--|
D|---------------------------------------------|
A|---------------------------------------------|
D|---------------------------------------------|
BACK TO Intro and repeat just the intro until end

Guitar 2 (distortion) ENTERS after the intro repeats 3times
e|-----------------------------------------------------------------------|
B|-----------------------------------------------------------------------|
G|-----------------------------------------------------------------------|
D|-----------------------------------------------------------------------|
A|---0-0-0-0-0-0-0-0-0-0-0-0-0-0-0-0-0-0-0-0-0-0-0-0-0-0-0-0-0-0-0-------|
D|---0-0-0-0-0-0-0-0-0-0-0-0-0-0-0-0-0-0-0-0-0-0-0-0-0-0-0-0-0-0-0-------|
  PM:.............................................................
Breakdown
e|------------------|------------------------------------------------|
B|------------------|------------------------------------------------|
G|--7/-9/-10-\6/7---|-----777777/-9999/-10101010\66666/77777---------|
D|--x/-x/-x--\x/x---|-----xxxxxx/-xxxx/-xxxx--\xxxxxx/xxxxxx---------|
A|--5/-7/-8--\4/5-x3|-----555555/-7777/-8888--\444444/555555---------|
D|------------------|---------------------------------------until end|

There's an ending which sounds like this:
Guitar 1 -Clean-
e|-----------------------------22*--------|
B|------------------15/18/22--------------|
G|----------------14----------------------|
D|-12\7\12-0-12-15------------------------|
A|----------------------------------------|
D|----------------------------------------|

This is my first tab, hope you guys like it. If you see something wrong mssge me here or 
send me an email Watchalookinat1@hotmail.com
Suggest correction
comments
print report bad tab
4 comments total. Showing first comments.
0 reply
strat07 40 wrote on December 5 2011, 08:51 pm

now you just gotta learn that this is an interpretation of the theme song from the movie "28 weeks later"

0 reply
Avengedd7foldd 51 wrote on December 5 2011, 10:27 pm

Yeah it does kinda sound the same, but oh well
A7X

+1 reply
strat07 40 wrote on December 8 2011, 09:47 am

still great job dude!

guest
You may want to rate the tab now too:
select rating
Wanna post a correction for this tab? Suggest correction