Oops, an error
Loading. Please wait.

Victim Tab

version 3
version 3

Whole song

3,073 views 1 this week
1 commentread comment
1 2 3 4 5
worth learning
x 5
add to favorites
launch autoscroll
font size
0
reset
how to read this tab
guitar tuner
Autoscroll
slow
fast
+/-
esc
set tempo
stop
Help us to improve Ultimate-Guitar.com Take our survey!
×
Author
Difficulty
intermediate
-------------------------------------------------------------------------------
                             SONG NAME - Band Name
-------------------------------------------------------------------------------
Tabbed by: Ballinky25
Email:

Tuning: Standard.
THE NUMBERS INSIDE THE PARENTHASES IS THE NOTE U BEND TO..
think about how it would sound if u dont understand the way i did it i suck at making tabs!
comment

e|-10b(11)-10b11r10------------11-------------------------------------------------|
B|-----------------11-8-11b(13~~~13r)-11-8-11b-11b--------------------------------|
G|------------------------------------------------10brb(12)-10p8----8v-10brb(12)--|
D|---------------------------------------------------------------10---------------|
A|--------------------------------------------------------------------------------|
E|--------------------------------------------------------------------------------|

e|----------------------------------18-------------------------------------------|
B|---------------11-11/9 9/16-18b(20~~~~20br18p15--------------------------------|
G|-10p8----8v-8---------------------------------15-------------------------------|
D|------10-----------------------------------------------------------------------|
A|-------------------------------------------------------------------------------|
E|-------------------------------------------------------------------------------|

FAST PART.
e|-15------15-------------------------------------------------------|
B|---16p15---15-16-15---15/11-11------------8-----------------------|
G|--------------------15-----12--12-10-8-10--10-7-8-7---------------|
D|-----------------------------------------------------8------------|
A|-------------------------------------------------------8-6-8/10v--|
E|------------------------------------------------------------------|

e|----------------------6------8------10-11-10----------15-18b(20-18-15--------|
B|---------------------------------------------13v----15---------------15------|
G|-8h10p8-7-8p7-8/10-8---8/10---10/12--------------17-------------------17v----|
D|-----------------------------------------------------------------------------|
A|-----------------------------------------------------------------------------|
E|-----------------------------------------------------------------------------|

e|-----15-18b(20-18-16p15-16b(18)-16-16/18-11-13-15/16-12vvv-------------------|
B|---15------------------------------------------------------------------------|
G|-17--------------------------------------------------------------------------|
D|-----------------------------------------------------------------------------|
A|-----------------------------------------------------------------------------|
E|-----------------------------------------------------------------------------|
Suggest correction
What's this?
You can suggest a correction to this tab. Community and Mods will review your correction and vote to approve or reject it.
comments
print report bad tab
1 comment total.
+1 reply
blackbird51 326 wrote on September 17 2010, 03:51 pm

no offense but this couldn't be anymore wrong.

guest
You may want to rate the tab now too:
select rating
Please do not post tabs as comments. Select "correction" instead!