Oops, an error
Loading. Please wait.

Walk Bass Tab

version 2
version 2

Whole song

Interactive

1,188 views 1 this week
no commentswrite comment
1 2 3 4 5
please rate
add to favorites
launch autoscroll
font size
0
reset
guitar tuner
Tab Pro tools
  • play this tab
  • loop segment
  • change instrument
  • show fretboard
  • metronome
×
Best way to learn
"Walk"
Autoscroll
slow
fast
+/-
esc
set tempo
stop
Contributor
Tuning
D A D G B E
Intro
G|--------------------------------------------------------------------|
D|--------------------------------------------------------------------|
A|--------------------------------------------------------------------|
D|-----0(x18)---/6\/8\---0--010--010--010--010--010--010--010--/6\/8\-|

G|---------------------------------------------------|--------------|
D|o-------------------------------------------------o|--------------|
A|o----------0--------------------------------------o|--------------|
D|--0--010--0---0--010--05--0--010--04-000103040301--|-000103040301-|

Verse 0:34
G|----------------------------------------------|
D|o--------------------------------------------o|
A|o----------------------------------------4-4-o|
D|--0--010--010--010--010--010--010--010--------|

Pre-chorus 0:51
G|----------------------------------|-----------------|
D|o--------------------------------o|-----------------|
A|o-2------------------------------o|-2---------------|
D|------5--6--0--010--010--010--01--|-----5---2---1-0-|

Chorus 1:16
G|---------------------------------------------------|--------------|
D|o-------------------------------------------------o|--------------|
A|o----------0--------------------------------------o|--------------|
D|--0--010--0---0--010--05--0--010--04-000103040301--|-000103040301-|

1:35
G|-----------------------------------------------|
D|-----------------------------------------------|
A|-----------------------------------------------|
D|-0--010--010--010--010--010--010--010--/6\/8\--|

Verse 1:42
G|----------------------------------------------|
D|o--------------------------------------------o|
A|o----------------------------------------4-4-o|
D|--0--010--010--010--010--010--010--010--------|

Pre-chorus 1:58
G|----------------------------------|-----------------|
D|o--------------------------------o|-----------------|
A|o-2------------------------------o|-2---------------|
D|------5--6--0--010--010--010--01--|-----5---2---1-0-|

Chorus 2:24                                       x4               x3
G|---------------------------------------------------|----------------|
D|o-------------------------------------------------o|o--------------o|
A|o----------0--------------------------------------o|o--------------o|
D|--0--010--0---0--010--05--0--010--04-000103040301--|--000103040301--|

Guitar Solo 3:02
G|-----------------------------------------------------------------|
D|-----------------------------------------------------------------|
A|---------------------------------------------------------530-0---|
D|-000-103-000-103-000-100-3-2-/8\-000-103-000-103-000-300------53-|

G|----------------------------------------------------------------------|
D|----------------------------------------------------------------------|
A|----------------------------------------------------------------------|
D|-000-033-000-033-000-000-3-2-/8\-000-033-000-033-000-000/121212121212-|

3:17
G|----------------------------------------------------------------------|
D|----------------------------------------------------------------------|
A|--------------------------------------------------------/101010101010-|
D|-555-555-585-857-555-555-8-5-/8\-555-555-585-857-555-555--------------|

G|------------------------------------------------------------------------|
D|------------------------------------------------------------------------|
A|--00-300--00-300--00-300-1-0-0---00-300--00-300--00-000/121212121212----|
D|-5-------5-------5-------------5--------5-------5--------------------0~-|

*two bar rest*
3:39
G|--------------------------------|
D|--------------------------------|
A|--------------------------------|
D|-000-000-000-000-000-000-/6\/8\-|

Chorus 4:43                                        x4
G|---------------------------------------------------|----------------|
D|o-------------------------------------------------o|o--------------o|
A|o----------0--------------------------------------o|o--------------o|
D|--0--010--0---0--010--05--0--010--04-000103040301--|--000103040301--|

Outro repeat & fade
|-------------------|
|o-----------------o|
|o-----------------o|
|--000-1-0-000-1-0--|
Tabbed by Dave Vucko
comments
We did not receive enough feedback on this tab! Please rate:
print report bad tab
1 2 3 4 5
I want to post or [tab]
guest
You may want to rate the tab now too:
select rating
Please do not post tabs as comments. Select "correction" instead!