Oops, an error
Loading. Please wait.

Warmness On The Soul Tab

version 1
version 1
176,519 views 261 this week
20 commentsread comments
1 2 3 4 5
excellent!
x 69
add to favorites
launch autoscroll
font size
0
reset
how to read this tab
guitar tuner
Tab Pro tools
  • play this tab
  • loop segment
  • change instrument
  • show fretboard
  • metronome
×
Best way to learn
"Warmness On The Soul"
Autoscroll
slow
fast
+/-
esc
set tempo
stop
Contributor
+--------KEY----------+
| \ -Slide Down       |
| h -Hammer On        |
| / -Slide Up         |
| P -Pull Off         |
| ~ -Let Ring/Vibrato | 
+---------------------+ 


Solo: 
e-|---------------------------------------------------------------------------- 
B-|---------------------------------------------------------------------------- 
G-|--------------------------------------9-7-44\5~7\9-9/7-4-4h5p4-2~~9\12-7-\14 
D-|-----5-7-5~~7-5-3\4----------------7h9-------------------------------------- 
A-|-\5-7---------------7-55~2-2/7~~7h9----------------------------------------- 
E-|---------------------------------------------------------------------------- 


e-|--------------------------------------------------------------------------- 
B-|--------------------------------------------------------------------------- 
G-|9-55\7-5~7\99/7-7--12-11---12-11---12\14-12-11-12-11----------11-12-11~~~~~ 
D-|------------------------12------12-------------------12\14~~14------------- 
A-|--------------------------------------------------------------------------- 
E-|---------------------------------------------------------------------------
comments
print report bad tab
20 comments total. Showing first comments.
0 reply
extrememan wrote on June 1 2004, 12:00 am

tab out the whole song

+1 reply
xsuckxmyxassx wrote on July 26 2004, 12:00 am

try sliding in from 2 on the A string

A|---2/5-7----------

-1 reply
ginger_snapd_ha wrote on April 22 2005, 12:00 am

THis song was so freaking easy.

I want to post or [tab]
guest
You may want to rate the tab now too:
select rating
Please do not post tabs as comments. Select "correction" instead!