Oops, an error
Loading. Please wait.

Warmness On The Soul Tab

version 1
version 1
183,906 views 96 this week
20 commentsread comments
1 2 3 4 5
x 74
add to favorites
launch autoscroll
font size
0
reset
how to read this tab
guitar tuner
Autoscroll
slow
fast
+/-
esc
set tempo
stop
Help us to improve Ultimate-Guitar.com Take our survey!
×
Author
[Solo]

e|------------------------------------------------------------------------------------------|
B|------------------------------------------------------------------------------------------|
G|---------------------------------------------------9-7-4-4\5~7\9-9/7-4-4h5p4-2~~9\12-7-\14|
D|------5-7-5~-5-5-5/7-3\4-----------------------7h9----------------------------------------|
A|-\5-7--------------------7-7\5-5-5\2-2-2/7~7h9--------------------------------------------|
E|------------------------------------------------------------------------------------------| 


e|-----------------------------------------------------------------------------|
B|-----------------------------------------------------------------------------|
G|9-5-5\7-5~7\9-9/7-7--12-11---12-11---12\14-12-11-12-11----------11-12-11~~~~~|
D|--------------------------12------12-------------------12\14~~14-------------|
A|-----------------------------------------------------------------------------|
E|-----------------------------------------------------------------------------|

************************************

| h  Hammer-on
| p  Pull-off
| /  Slide up
| \  Slide down
| ~  Vibrato

************************************
Suggest correction
comments
print report bad tab
20 comments total. Showing first comments.
0 reply
extrememan 50 Jun 01, 2004 12:00 AM

tab out the whole song

+1 reply
xsuckxmyxassx 50 Jul 26, 2004 12:00 AM

try sliding in from 2 on the A string

A|---2/5-7----------

-1 reply
ginger_snapd_ha 31 Apr 22, 2005 12:00 AM

THis song was so freaking easy.

guest
You may want to rate the tab now too:
select rating
Wanna post a correction for this tab? Suggest correction