Oops, an error
Loading. Please wait.

Warmness On The Soul Tab

version 3
version 3
6,278 views 1 this week
no commentswrite comment
1 2 3 4 5
x 4
add to favorites
launch autoscroll
font size
0
reset
how to read this tab
guitar tuner
Autoscroll
slow
fast
+/-
esc
set tempo
stop
Help us to improve Ultimate-Guitar.com Take our survey!
×
Author
Difficulty
novice
-------------------------------------------------------------------------------
Warmness On The Soul (Solo) - Avenged Sevenfold
-------------------------------------------------------------------------------
Tabbed by:Sarah
Email:lyvingvamp@yahoo.com    

Tuning:Standard

e|-----------------------------------------------------------------------------|
B|-----------------------------------------------------------------------------|
G|-------------------------------------------9-7-----------99-77---------------|
D|------5-7-5~--5-7-5--------------------7-9-----9-10--12-------99-9h10p9------|
A|--5-7--------------7\9-7-5~--2\7~--7-9----------------------------------12~--|
E|-----------------------------------------------------------------------------|

e|-----------------------------------------------------------------------------|
B|-----------------------------------------------------------------------------|
G|--------------14-14----------------------------------------------------------|
D|--12-12-------------------12-10~--12-14-14-12-12~--12/-----------------------|
A|--------12-12-------12-12----------------------------------------------------|
E|-----------------------------------------------------------------------------|

e|-----------------------------------------------------------------------------|
B|-----------------------------------------------------------------------------|
G|--12-11----12-11----12-14-12-11-12--------11-12-11~--------------------------|
D|--------12-------12----------------12\14~------------------------------------|
A|-----------------------------------------------------------------------------|
E|-----------------------------------------------------------------------------|


| / slide up
| \ slide down
| h hammer-on
| p pull-off
| ~ vibrato
| + harmonic
| x Mute note
===============================================================================
Suggest correction
comments
print report bad tab
guest
You may want to rate the tab now too:
select rating
Wanna post a correction for this tab? Suggest correction