Oops, an error
Loading. Please wait.

Warmness On The Soul Tab

version 4
version 4
1,748 views 1 this week
no commentswrite comment
1 2 3 4 5
3 more votes to show rating
add to favorites
launch autoscroll
font size
0
reset
how to read this tab
guitar tuner
Autoscroll
slow
fast
+/-
esc
set tempo
stop
Help us to improve Ultimate-Guitar.com Take our survey!
×
Author
Difficulty
novice
-------------------------------------------------------------------------------
                             Warmness on the soul - Avenged sevenfold
-------------------------------------------------------------------------------i wrote 
this tab by hearing the music because all the other tabs starts wrong... or sound wrong 
for me good luck :)
Tabbed by:me :)
Email:thewickedside@live.dk

Tuning:standard

e|----------------------------------------------------------------------------|
B|-------------------------------------------------------------------------10-|
G|----------------------------------------------------------------------------|
D|-----5-7-5-5h7p5-4-2-0--2-2-5-7-9-14-12-9-10-10-12-14-14-10-9-10p9-7-12-7---|
A|-5-7-------------------2----------------------------------------------------|
E|----------------------------------------------------------------------------|

e|---------------------------------------------------------------------------|
B|---------------------------------------------------------------------------|
G|-----------------------------12-11--12-11--14-12-11-12-11--9-11-12-11\-----|
D|-7-12-10-10-12-14-14-12-12-12-----12-----12--------------12----------------|
A|---------------------------------------------------------------------------|
E|---------------------------------------------------------------------------|

it easier if u know the music remember the pauses ;)

************************************

| /   slide up
| \   slide down
| h   hammer-on
| p   pull-off
| ~   vibrato
| +   harmonic
| x   Mute note
| b   Bend
| pb  Pre-bend
| br  Bend release
| pbr Pre-bend release
| brb Bend release bend

************************************
Suggest correction
Give kudos to tab author, rate the tab!
1 2 3 4 5
comments
print report bad tab
guest
You may want to rate the tab now too:
select rating
Wanna post a correction for this tab? Suggest correction