Oops, an error
Loading. Please wait.

Warmness On The Soul Bass Tab

version 3
version 3
735 views 6 this week
no commentswrite comment
1 2 3 4 5
please rate
add to favorites
launch autoscroll
font size
0
reset
guitar tuner
Autoscroll
slow
fast
+/-
esc
set tempo
stop
Help us to improve Ultimate-Guitar.com Take our survey!
×
Author
Difficulty
Tuning
novice
C G C F A D
I could never find a bass tab with the guitar solo right, so here it is. right. 
This is my first tab so yea.

Zacky's Solo:
G |---------------|----------------------------------|---------|
D |---------------|-----------------------5~-4~-2~-0~|---------|
A |---------------|--3~-----------3~--5~-------------|--3~--5--|
D |-5~--0~--2~----|------5~--0~----------------------|---------|

Verse: Play 4 times
G |--------------------|
D |--------------------|
A |-----3-------5------|
D |-2-------5----------|

Chorus:
G |-------------------------|--------------|----------------|
D |-------------------------|--------------|----------------|
A |--3~---5~---------3~--5~-|--------------|--3~--5---------|
D |------------2~-----------|--5~-4~-2~-0~-|------------5-4-|

The Rev's Solo: Play 4 times (I know there is some bass improvising and stuff but 
I don't want to figure it out.)
G |---------------|
D |---------------|
A |-----3~----5~--|
D |-2~-----5~-----|

Chorus/End:
G |-------------------------|--------------|----------|
D |-------------------------|--------------|----------|
A |--3~---5~---------3~--5~-|--------------|--3~--5---|
D |------------2~-----------|--5~-4~-2~-0~-|----------|
And that's it. This tab is dedicated to Nick Ryan because he plays bass. R.I.P THE REV
Suggest correction
Give kudos to tab author, rate the tab!
1 2 3 4 5
comments
print report bad tab
guest
You may want to rate the tab now too:
select rating
Wanna post a correction for this tab? Suggest correction