Oops, an error
Loading. Please wait.

Warmness On The Soul Bass Tab

version 4
version 4
948 views 1 this week
no commentswrite comment
1 2 3 4 5
2 more votes to show rating
add to favorites
launch autoscroll
font size
0
reset
guitar tuner
Autoscroll
slow
fast
+/-
esc
set tempo
stop
Help us to improve Ultimate-Guitar.com Take our survey!
×
Author
Difficulty
Tuning
intermediate
D A D G B E
1:54
G|-----------------------------------------------------------------|
D|-----------------------------------------------------------------|
A|---------------3-5-------5-5-----------------------------------2-|
D|-5-------5-5-----------------5-4-2---------------2-----2-2-4-5---|
   1 2 3 4 1 2 3 4 1 2 3 4 1 2 3 4 1 2 3 4 1 2 3 4 1 2 3 4 1 2 3 4

2:01
G|-----------------------------------------------------------------|
D|-------------------------------------------/-5---7-5-------------|
A|-3---------3-3-2-------------2-3-5-----5-5-----------5---5-5-5-2-|
D|-----------------5-------5---------------------------------------|
   1 2 3 4 1 2 3 4 1 2 3 4 1 2 3 4 1 2 3 4 1 2 3 4 1 2 3 4 1 2 3 4

2:10
G|-----------------------------------------------------------------|
D|---------------------------------5-------------------2-------7---|
A|-3-------3-3-2-3-5-------5-5-5-5-----5-------5---------2-5-----5-|
D|---------------------------------------5-------4-2---------------|
   1 2 3 4 1 2 3 4 1 2 3 4 1 2 3 4 1 2 3 4 1 2 3 4 1 2 3 4 1 2 3 4

2:18
G|-----------------------------------------------------------------|
D|-----------------------------------------------------------------|
A|-3-------3-3-2-3-5-----------------------------2-3-------3-3-2-0-|
D|-------------------------5---4---2-----------5-------------------|
   1 2 3 4 1 2 3 4 1 2 3 4 1 2 3 4 1 2 3 4 1 2 3 4 1 2 3 4 1 2 3 4

2:26
G|-----------------------------------------------------------------|
D|-----------------------------------------------------------------|
A|-------------2-3-5-----5-5-------------------0-2-3-------3-2-3-5-|
D|-5-------5-------------------5-4-2-------4-----------------------|
   1 2 3 4 1 2 3 4 1 2 3 4 1 2 3 4 1 2 3 4 1 2 3 4 1 2 3 4 1 2 3 4

2:34
G|-----------------------------------------------------------------|
D|---------------------------------2---2---2---2-0-----------------|
A|-------------2-3-5-----5---5-6-------------------3-------3-2-----|
D|-5-----5-5-5-----------------------2---2---------------------2-4-|
   1 2 3 4 1 2 3 4 1 2 3 4 1 2 3 4 1 2 3 4 1 2 3 4 1 2 3 4 1 2 3 4

2:43
G|-----------------------------------------------------------------|
D|-----------------------------------------------------------------|
A|-------------2-3-5---5-5---5-------------------2-3-------3-2-3-5-|
D|-5-------5-------------------5-4-2-----2-2-4-5-------------------|
   1 2 3 4 1 2 3 4 1 2 3 4 1 2 3 4 1 2 3 4 1 2 3 4 1 2 3 4 1 2 3 4

2:50
G|-----------------------------------------------------------------|
D|-----------------------------------------------------------------|
A|---------------3-5-----5-5---5---3-------3-------5-------5-------|
D|-5-----5-5---5-----------------------------------------------5-4-|
   1 2 3 4 1 2 3 4 1 2 3 4 1 2 3 4 1 2 3 4 1 2 3 4 1 2 3 4 1 2 3 4

2:59
G|-----------------------------------------------------------------|
D|---------2-------------------------------------------------------|
A|-------------------------------2-3-----3-3-2-3-4-5-----5-5-5-5-5-|
D|-2-----2---2-----2---2-4-5-4-2-----------------------------------|
   1 2 3 4 1 2 3 4 1 2 3 4 1 2 3 4 1 2 3 4 1 2 3 4 1 2 3 4 1 2 3 4

3:06
G|-----------------------------------------------------------------|
D|-----------------------------------------------------------------|
A|-------5-----5----------/5-----5-3-------3-3-2-3-5---------------|
D|-5-------5-----4-2---5-4-----5---------------------------5---4---|
   1 2 3 4 1 2 3 4 1 2 3 4 1 2 3 4 1 2 3 4 1 2 3 4 1 2 3 4 1 2 3 4

3:15
G|-----------------------------------------------------------------|
D|-----------------------------------------------------------------|
A|---------------2-3-----3-3-------------------2-3-5-----5-5-5-----|
D|-2-------2-5-2---------------2-4-5-----5-5-------------------5-4-|
   1 2 3 4 1 2 3 4 1 2 3 4 1 2 3 4 1 2 3 4 1 2 3 4 1 2 3 4 1 2 3 4

3:23
G|-----------------------------------------------------------4-----|
D|-----------------------------------------------------------------|
A|---------------2-3---3---3-2-3-5-------------2-3-5-----5-5---5-6-|
D|-2-------2-5-2-------------------5-------5-----------------------|
   1 2 3 4 1 2 3 4 1 2 3 4 1 2 3 4 1 2 3 4 1 2 3 4 1 2 3 4 1 2 3 4

3:31
G|-----------------------------------------------------------------|
D|---------4-5-4---------------------------------------------------|
A|-7-----7-------5-3-------3---2-3-------------2-3-5-----5---5-----|
D|---------------------------------5-----5-5-------------------5-4-|
   1 2 3 4 1 2 3 4 1 2 3 4 1 2 3 4 1 2 3 4 1 2 3 4 1 2 3 4 1 2 3 4

3:39
G|-----------------------------------------------------------------|
D|-----------------------------------------------------------------|
A|---------------2-3-----3-3-------------------2-3-5-----5---5-5-5-|
D|-2---------4-5---------------2-4-5-----5-5-----------------------|
   1 2 3 4 1 2 3 4 1 2 3 4 1 2 3 4 1 2 3 4 1 2 3 4 1 2 3 4 1 2 3 4

3:47
G|-----------------------------------------------------------------|
D|-----------------------------------------------------------------|
A|-3-----3-3-----3-5---------------------------------------2-0---2-|
D|-------------------0-------------2---------2-2-----2-4-5-----5---|
   1 2 3 4 1 2 3 4 1 2 3 4 1 2 3 4 1 2 3 4 1 2 3 4 1 2 3 4 1 2 3 4

3:55
G|-----------------------------------------------------------------|
D|-----------------------------------------------------9-------7---|
A|-3-----3-3---2-3-5-----5-5---5-5-----5-------5-----------5-------|
D|---------------------------------5-----5-4-----4-2---------------|
   1 2 3 4 1 2 3 4 1 2 3 4 1 2 3 4 1 2 3 4 1 2 3 4 1 2 3 4 1 2 3 4

4:04
G|-----------------------------------------------------------------|
D|-----------------------------------------------------------------|
A|-3---3-3-3---2-3-5-----------------------------------------------|
D|-------------------------5---4---2-------------------------------|
   1 2 3 4 1 2 3 4 1 2 3 4 1 2 3 4 1 2 3 4 1 2 3 4 1 2 3 4 1 2 3 4

Tabbed by Dave Vucko
Suggest correction
Give kudos to tab author, rate the tab!
1 2 3 4 5
comments
print report bad tab
guest
You may want to rate the tab now too:
select rating
Wanna post a correction for this tab? Suggest correction