Oops, an error
Loading. Please wait.

We Come Out At Night bass

version 2
version 2

Whole song

Interactive

455 views 1 this week
1 commentread comment
1 2 3 4 5
3 more votes to show rating
add to favorites
×
Save as Personal and add changes to this tab that will be seen only by you. Learn more ›
×
You can save this tab as Personal to edit and correct it or add notes. All changes will be seen only by you. Learn more »
launch autoscroll
font size
0
reset
guitar tuner
edit
Autoscroll
slow
fast
+/-
esc
set tempo
stop
Author
Difficulty
ik the order just not how many times each part is played
so that you have to figure out with the song


repete till change
e------------------------------|
B------------------------------|
G------------------------------|
D-------------------1----------|
A------------------------------|
D--00--00010013100-------------|

next part after zack's little lead part
again repete till change
e----------------------------------------|
B----------------------------------------|
G----------------------------------------|
D----------------------------------------|
A----------------------------------------|
D--8-10-7-----00--00--00--8-10-7---------|

chorus(repete till change)
e-------------------------------------------------|
B-------------------------------------------------|
G-------------------------------------------------|
D-------------------------------------------------|
A-------------------3-3-3-3-3-3-------------------|
D-0~---0-0-0-0-0-0-------------3-3-3-3-2353235323-|

e--------------------------------------------------|
B--------------------------------------------------|
G--------------------------------------------------|
D--------------------------------------------------|
A-------------------3-3-3-3-3-3--------------------|
D-0~---0-0-0-0-0-0-------------3-3-3-3-333-222-333-|

interlude(repete till change)(btw thats not a ten it's a one and a zero
e-------------------------------------------------|
B-------------------------------------------------|
G-------------------------------------------------|
D-------------------------------------------------|
A---------------5----------5----------------------|
D-0~----10--------656--10------656----------------|

e-------------------------------------------------|
B-------------------------------------------------|
G-------------------------------------------------|
D-------------------------------------------------|
A---------6-------------6---76--------------------|
D---01------767----01-----7-----------------------|

after interlude(repete till next part
e------------------------------------------------------|
B------------------------------------------------------|
G------------------------------------------------------|
D------------------------------------------------------|
A------------------------------------------------------|
D000-000-000~-111-111-111~--000-000-000~--111-111111~--|

e------------------------------------------------------|
B------------------------------------------------------|
G------------------------------------------------------|
D------------------------------------------------------|
A-------------------0235-------------------------------|
E-00--0-1-4--00--0-------------------------------------|

e------------------------------------------------------|
B------------------------------------------------------|
G------------------------------------------------------|
D------------------------------------------------------|
A------------------0235--------------------------------|
D-000-0-0-00-------------------------------------------|

next part is realy easy lol just hold the note and let it fade

e------------------------------------------------------|
B------------------------------------------------------|
G------------------------------------------------------|
D------------------------------------------------------|
A------------------------------------------------------|
D-0~---------------------------------------------------|

now come into this repete the half on right of bars till piano comes in
e-------------]---------------------------------------------------------|
B-------------]---------------------------------------------------------|
G-------------]---------------------------------------------------------|
D-------------]---------------------------------------------------------|
A-------------]----------------3-3-3-3-3-3------------------------------|
D-333-222-333-]---0-0-0-0-0-0--------------3-3-3-3-3-3--2353235323------|

don't hit open until the piano comes in
e--------------------------------------------------------------|
B--------------------------------------------------------------|
G--------------------------------------------------------------|
D--------------------------------------------------------------|
A---------------3-3-3-3-3-3------------------------------------|
D-0-0-0-0-0-0---------------3-3-3-3-3-3--333-222-333--------0~-|

            
            
Suggest correction
Creating personal tab
Creating personal tab
You can edit any tab online and save it as your Personal.

You can edit, replace or remove any tab part or add personal notes – all changes will be seen only by you.

Personal tabs can be accessed anytime from any device, even offline.
Learn more »
Give kudos to tab author, rate the tab!
1 2 3 4 5
comments
print report bad tab
1 comment total.
0 reply
crazycram42094 72 Oct 14, 2008 02:01 PM

last i checked, johnny christ uses a 4 string bass not six. but maybe i hav just been hallucinating while i watched live LBC.

guest
You may want to rate the tab now too:
select rating
Wanna post a correction for this tab? Suggest correction