Oops, an error
Loading. Please wait.

We Come Out At Night Tab

version 2
version 2

Whole song

Interactive

4,538 views 6 this week
4 commentsread comments
1 2 3 4 5
excellent!
x 12
add to favorites
launch autoscroll
font size
0
reset
how to read this tab
guitar tuner
Tab Pro tools
  • play this tab
  • loop segment
  • change instrument
  • show fretboard
  • metronome
×
Best way to learn
"We Come Out At Night"
Autoscroll
slow
fast
+/-
esc
set tempo
stop
Contributor
Difficulty
Tuning
intermediate
D A D G B E
Band: Avenged Sevenfold
Song: We Come Out At Night
Album: Sounding The Seventh Trumpet
Guitarists: Synyster Gates (Guitar one) and Zacky Vengeance (Guitar two) 
Tabbed by: Reed Rucka ... theft92 (theft92@live.com)

Tuning Drop D (D,A,D,G,B,e)  (Both Guitars)

I've noticed that all the tabs for this are wrong, so now I'm giving it a try. 
This is what I beleive to be 100% correct. If you see any mistakes let me know.


Guitar 1 plays 6x, Guitar 2 plays 4x
e|---------------------------------------------|
B|---------------------------------------------|
G|-:-:-----:-:-:-:-:-:-:-:-:-:-:-:---------3---| 
D|-0-0-----1-1-0-3-3-0-5-5-1-1-0-0---------2---|  
A|-0-0-----1-1-0-3-3-0-3-3-1-1-0-0---------1---|
D|-0-0-----1-1-0-3-3-0-----1-1-0-0-------------|



Guitar Two:
e|----------------------------------------|
B|----------------------------------------|
G|---/7--8---/10--12--8-7--8--5-3--5--3---| Play
D|----------------------------------------|  2x
A|----------------------------------------|
D|----------------------------------------|

Both Guitars:
e|--------------------------------------------------|
B|--------------------------------------------------|   
G|--------------------------------------------------| 
D|-1-----/4--3--1-0-------3-----6--4--3-4---7-------| 
A|-1-----/4--3--1-0-------3-----6--4--3-4---7-------| 
D|-1-----/4--3--1-0-------3-----6--4--3-4---7---(8)-|

e|------------------------------------------|
B|------------------------------------------|
G|-----::-----------------------------------|
D|-1---11---4--3--1-0-------3-----6--4--3---|
A|-1---11---4--3--1-0-------3-----6--4--3---|
D|-1---11---4--3--1-0-------3-----6--4--3---|

Guitar One:
e|-------------------------------------------------|
B|-------------------------------------------------|
G|---.-------------.-------------.-------------.---| Play
D|-1-1-----------1-1-----------0-0-----------0-0---|  4x
A|-1-1-----------1-1-----------0-0-----------0-0---|
D|-1-1-----------1-1-----------0-0-----------0-0---|

Guitar Two:
e|--------------------------------------------------------------------|
B|--------------------------------------------------------------------|
G|--3-3-3-3---------3-3-3-3--------6-6-6-6-------6-6-6-6--------------| Play
D|--1-1-1-1---------1-1-1-1--------4-4-4-4-------4-4-4-4--------------|  4x
A|--------------------------------------------------------------------|
D|--------------------------------------------------------------------|

Both Guitars:
e|-------------------------------------------------|
B|-------------------------------------------------|
G|-3----5----2---:-:-----------:-:-----------:-:---| Play
D|-3----5----2---0-0-----------0-0-----------0-0---|  2x
A|-1----3----0---0-0-----------0-0-----------0-0---|
D|---------------0-0-----------0-0-----------0-0---|

e|---------------------------------------------------------|
B|---------------------------------------------------------|
G|-3----5----2---:-:-----7-----:-:-----8-----:-:-----7-----| Play
D|-3----5----2---0-0---7---7---0-0---8---8---0-0---7---7---|  2x
A|-1----3----0---0-0-----------0-0-----------0-0-----------|
D|---------------0-0-----------0-0-----------0-0-----------|

e|--------------------|
B|--------------------|
G|-3----5----2--------|
D|-3----5----2---0~---|
A|-1----3----0---0~---|
D|---------------0~---|


e|------------------------------------------------------------|
B|------------------------------------------------------------|
G|---------------5--5-5-5--5-5--------------------------------|
D|-0--0-0-0--0-0-5--5-5-5--5-5-3-3-3-3------------------------|
A|-0--0-0-0--0-0-3--3-3-3--3-3-3-3-3-3------------------------|
D|-0--0-0-0--0-0---------------3-3-3-3--2-3-5-3-2-3-5-3-2-3---| 
  Clouds swallow the moon...                                     Play
                                                                  2x    
e|------------------------------------------------------------|
B|------------------------------------------------------------|
G|---------------5--5-5-5--5-5----------:::-:::-:::-----------|
D|-0--0-0-0--0-0-5--5-5-5--5-5-3-3-3-3--333-222-333-----------|
A|-0--0-0-0--0-0-3--3-3-3--3-3-3-3-3-3--333-222-333-----------|
D|-0--0-0-0--0-0---------------3-3-3-3--333-222-333-----------| 
  Thinking good times...

Guitar One:  ..Play 4x
e|-----------------------------------------------------------------------|
B|-----------------------------------------------------------------------|
G|-----------------------------------------------------------------------| 
D|-----------------------------------------------------------------------|  
A|----/5---------------/5---------------/6---------------/6------7--6----|
D|-0-----6--5--6--1-0-----6--5--6--0-1-----7--6--7--2-1-----6---------1--|

Guitar two:
e|-----------------------------------------------------|
B|-----------------------------------------------------|
G|-.----------------.----------------------------------| Play
D|-0--------------1-0--------------0-1~------------1---|  2x
A|-0--------------1-0--------------0-1~------------1---|
D|-0--------------1-0--------------0-1~------------1---|

Both Gutiars
e|-----------------------------------------------|
B|-----------------------------------------------|
G|-:::---:::---::-------------:::---:::---::-----| Play
D|-000---000---000~-----------111---111---111~---|  4x
A|-000---000---000~-----------111---111---111~---|
D|-000---000---000~-----------111---111---111~---|

e|-----------------------------------|
B|-----------------------------------|
G|-----------------------------------|
D|-0---0-1---4---1p0---0-1-4-1h4p1-0-|
A|-0---0-1---4---1p0---0-1-4-1h4p1-0-|
D|-0---0-1---4---1p0---0-1-4-1h4p1-0-| Play 
                                        2x    
e|------------------------------|    
B|------------------------------|
G|-------------------:----------|
D|-0---1---4---1p0---0------0---|
A|-0---1---4---1p0---0-0-1-3----|
D|-0---1---4---1p0---0----------|

e|-------------------------------------|
B|-------------------------------------|
G|---.---.---.-------.-----------------|
D|-0-0---0---0---0-0-0---x-x-------0---|
A|-0-0---0---0---0-0-0---x-x-0-1-3-----|
D|-0-0---0---0---0-0-0---x-x-----------|

e|-------------------------------------|
B|-------------------------------------|
G|-------.---.-------.-----------------| Play
D|-0-0-0-0---0---0-0-0---x-x-------0---| 3x
A|-0-0-0-0---0---0-0-0---x-x-0-1-3-----|
D|-0-0-0-0---0---0-0-0---x-x-----------|

e|------|
B|------|
G|------|
D|-0~---|
A|-0~---|
D|-0~---|


e|-------------------|
B|-------------------|
G|-:::---:::---:::---|
D|-333---222---333---|
A|-333---222---333---|
D|-333---222---333---|
                                    note: tempo starts to slow
e|------------------------------------------------------------|
B|------------------------------------------------------------|
G|---------------5--5-5-5--5-5--------------------------------|
D|-0--0-0-0--0-0-5--5-5-5--5-5-3-3-3-3------------------------|
A|-0--0-0-0--0-0-3--3-3-3--3-3-3-3-3-3------------------------|
D|-0--0-0-0--0-0---------------3-3-3-3--2-3-5-3-2-3-5-3-2-3---| 
  Clouds swallow the moon...                                     Play
                                                                  2x    
e|------------------------------------------------------------|
B|------------------------------------------------------------|
G|---------------5--5-5-5--5-5----------:::-:::-:::-----------|
D|-0--0-0-0--0-0-5--5-5-5--5-5-3-3-3-3--333-222-333-----------|
A|-0--0-0-0--0-0-3--3-3-3--3-3-3-3-3-3--333-222-333-----------|
D|-0--0-0-0--0-0---------------3-3-3-3--333-222-333-----------| 
  Thinking good times...

End..
comments
print report bad tab
4 comments total. Showing first comments.
0 reply
M.P.A.Guitarist wrote on June 18 2010, 06:41 am

Wow this sounds perfect, 5*s for sure

0 reply
TrUe MeTaL FaN wrote on June 18 2010, 06:48 am

sounds good man

0 reply
bfmv13\m/ wrote on May 31 2013, 12:55 am

On the intro, instead of:

G|--3--|
D|--2--|
A|--1--|
D|-----|

it's :

G|----|
D|--6--|
A|--5--|
D|--6--|

I want to post or [tab]
guest
You may want to rate the tab now too:
select rating
Please do not post tabs as comments. Select "correction" instead!