Oops, an error
Loading. Please wait.

We Come Out At Night tab

version 3
version 3

Whole song

Interactive

118 views 1 this week
no commentswrite comment
1 2 3 4 5
2 more votes to show rating
add to favorites
×
Save as Personal and add changes to this tab that will be seen only by you. Learn more ›
×
You can save this tab as Personal to edit and correct it or add notes. All changes will be seen only by you. Learn more »
launch autoscroll
font size
0
reset
how to read this tab
guitar tuner
edit
Autoscroll
slow
fast
+/-
esc
set tempo
stop
Band: Avenged Sevenfold
Song: We Come Out At Night
Tuning: Drop D
Tabbed by: Peryitex


[Intro/Verse]

e|---------------------------------------------------------------------------|
B|---------------------------------------------------------------------------|
G|---------------------------------------------------------------------------|
D|----------------------------5-5-----------------6--------------------------| 6x
A|-0-0------------1-1-0-3-3-0-3-3-1-1-1-0---------5--------------------------|
D|-0-0------------1-1-0-3-3-0-----1-1-1-0---------6--------------------------|

   PM-------------------------------------|

[Lead Guitar]

e|---------------------------------------------------------------------------|
B|---------------------------------------------------------------------------|
G|-/7-----8-----5/10-----12----8---7-----8-----5---3-----5-----3-------------|
D|---------------------------------------------------------------------------| 2x
A|---------------------------------------------------------------------------|
D|---------------------------------------------------------------------------|


[Bridge 1]

e|---------------------------------------------------------------------------|
B|---------------------------------------------------------------------------|
G|---------------------------------------------------------------------------|
D|-1--------4---3---1--0------------3-------6---4---3--4--------8------------|
A|-1--------4---3---1--0------------3-------6---4---3--4---------------------|
D|-1--------4---3---1--0------------3-------6---4---3--4-----7---------------|

                                                                ph

e|---------------------------------------------------------------------------|
B|---------------------------------------------------------------------------|
G|---------------------------------------------------------------------------|
D|-1--------4---3---1--0------------3-------6---4---3------------------------|
A|-1--1-1---4---3---1--0------------3-------6---4---3------------------------|
D|-1--1-1---4---3---1--0------------3-------6---4---3------------------------|
 
      PM-|

[Verse]

e|---------------------------------------------------------------------------|
B|-------4-4-4-4-------4-4-4-4-------7-7-7-7-------7-7-7-7-------------------|
G|-------x-x-x-x-------x-x-x-x-------x-x-x-x-------x-x-x-x-------------------|
D|-------1-1-1-1-------1-1-1-1-------4-4-4-4-------4-4-4-4-------------------| 4x
A|-1-1-----------1-1-----------0-0---5-5-5-5-0-0---5-5-5-5-------------------|
D|-1-1-----------1-1-----------0-0-----------0-0-----------------------------|

e|---------------------------------------------------------------------------|
B|---------------------------------------------------------------------------|
G|---------------------------------------------------------------------------|
D|-8--------10---7-----------------------------------------------------------| 5x
A|-8--------10---7---0-0--------0-0--------0-0-------------------------------|
D|-8--------10---7---0-0--------0-0--------0-0-------------------------------|

                     PM-----------------------|

[Lead Guitar]

e|---------------------------------------------------------------------------|
B|---------------------------------------------------------------------------|
G|---7---------8---------7---------------------------------------------------|
D|-7---7-----8---8-----7---7-------------------------------------------------| 2x
A|---------------------------------------------------------------------------|
D|---------------------------------------------------------------------------|

End on:

e|---------------------------------------------------------------------------|
B|---------------------------------------------------------------------------|
G|---------------------------------------------------------------------------|
D|-0-------------------------------------------------------------------------|
A|-0-------------------------------------------------------------------------|
D|-0-------------------------------------------------------------------------|


[Chorus]

The strumming pattern really isn't that important here, just play something that sounds nice to you.

e|---------------------------------------------------------------------------|
B|---------------------------------------------------------------------------|
G|------------5--------------------------------------------------------------|
D|-0----------5----------3---------------------------------------------------| 
A|-0----------3----------3---------------------------------------------------|
D|-0---------------------3------2-3-5-3-2-3-5-3-2-3--------------------------|

e|---------------------------------------------------------------------------|
B|---------------------------------------------------------------------------|
G|------------5--------------------------------------------------------------|
D|-0----------5----------3---------------------------------------------------|
A|-0----------3----------3----------3-3-3---2-2-2---3-3-3--------------------|
D|-0---------------------3----------3-3-3---2-2-2---3-3-3--------------------|

                                    PM--------------------|

e|---------------------------------------------------------------------------|
B|---------------------------------------------------------------------------|
G|------------5--------------------------------------------------------------|
D|-0----------5----------3---------------------------------------------------| 
A|-0----------3----------3---------------------------------------------------|
D|-0---------------------3------2-3-5-3-2-3-5-3-2-3--------------------------|

e|---------------------------------------------------------------------------|
B|---------------------------------------------------------------------------|
G|------------5--------------------------------------------------------------|
D|-0----------5----------3---------------------------------------------------|
A|-0----------3----------3----------3-3-3---2-2-2---3-3-3--------------------|
D|-0---------------------3----------3-3-3---2-2-2---3-3-3--------------------|

                                    PM--------------------|


[Bridge]

Guitar 1:

e|-----------------------------------------------------------------------------|
B|-----------------------------------------------------------------------------|
G|-----------------------------------------------------------------------------|
D|-----------------------------------------------------------------------------| 2x
A|---/5----------------------------------------/6-----------------/6----7-6----|
D|-0------6-5---6\---1--0------6-5---6\---0--1-----7-6---7---0--1-----7------1-|

Guitar 2:

e|-----------------------------------------------------------------------------|
B|-----------------------------------------------------------------------------|
G|-----------------------------------------------------------------------------|
D|-0-----------------1--0-----------------0--1-------------------------------1-| 2x
A|-0-----------------1--0-----------------0--1-------------------------------1-|
D|-0-----------------1--0-----------------0--1-------------------------------1-|

Both guitars then play the same riff. On the last repeat
before the next riff, the guitars end on a different note:

e|-----------------------------------------------------------------------------|
B|-----------------------------------------------------------------------------|
G|-----------------------------------------------------------------------------|
D|-----------------------------------------------------------------------------| 
A|---/5----------------------------------------/6-----------------/6----7-6----|
D|-0------6-5---6\---1--0------6-5---6\---0--1-----7-6---7---0--1-----7------1-|

e|-----------------------------------------------------------------------------|
B|-----------------------------------------------------------------------------|
G|-----------------------------------------------------------------------------|
D|-----------------------------------------------------------------------------|
A|---/5----------------------------------------/6-----------------/6----7-6----|
D|-0------6-5---6\---1--0------6-5---6\---0--1-----7-6---7---0--1-----7------7-|
                                                                             ^
                                                                             | this one
[Bridge]

e|---------------------------------------------------------------------------|
B|---------------------------------------------------------------------------|
G|---------------------------------------------------------------------------|
D|---------------------------------------------------------------------------| 4x
A|-0-0-0--0-0-0--0-0-0--------------------1-1-1--1-1-1--1-1-1----------------|
D|-0-0-0--0-0-0--0-0-0--------------------1-1-1--1-1-1--1-1-1----------------|

   PM--------------------------------------------------------|


[Verse]

e|---------------------------------------------------------------------------|
B|---------------------------------------------------------------------------|
G|---------------------------------------------------------------------------|
D|-0-----0-1---4-----1p0-----0-1-4-4--0-----0-1---4-----1p0------------0-----| 2x
A|-0--0--0-1---4-----1p0--0--0-1-4-4--0--0--0-1---4-----1p0--0-0-0h1h3-------|
D|-0--0--0-1---4-----1p0--0--0-1-4-4--0--0--0-1---4-----1p0--0-0-------------|

     PM                  PM             PM                   PM-|


[Bridge]

e|---------------------------------------------------------------------------|
B|---------------------------------------------------------------------------|
G|---------------------------------------------------------------------------|
D|-0-0---0--0--0-0--------------0--------------------------------------------| 1x
A|-0-0---0--0--0-0----0-0-0h1h3----------------------------------------------|
D|-0-0---0--0--0-0----0-0----------------------------------------------------|

                      PM-|

e|---------------------------------------------------------------------------|
B|---------------------------------------------------------------------------|
G|---------------------------------------------------------------------------|
D|-0-0-0-0--0--0-0--------------0--------------------------------------------| 3x
A|-0-0-0-0--0--0-0----0-0-0h1h3----------------------------------------------|
D|-0-0-0-0--0--0-0----0-0----------------------------------------------------|

                      PM-|

[Clean Chorus]

Aside from the C chord he is only playing powerchords, but the chords above the tab would also work, if you
want to play actual chords.

  [Dm]          [C]          [F]

e|---------------0-----------------------------------------------------------|
B|(3)------------1-----------------------------------------------------------|
G|(2)------------0-----------------------------------------------------------|
D|-0-------------2------------3----------------------------------------------|
A|-0-------------3------------3----------------------------------------------|
D|-0--------------------------3----------------------------------------------|

e|---------------0-----------------------------------------------------------|
B|(3)------------1-----------------------------------------------------------|
G|(2)------------0-----------------------------------------------------------|
D|-0-------------2------------3-------------3-3-3-3-2-2-2-2------------------|
A|-0-------------3------------3-------------3-3-3-3-2-2-2-2------------------|
D|-0--------------------------3-------------3-3-3-3-2-2-2-2------------------|

e|-----------------------0---------------------------------------------------|
B|(3)------------------1---1-------------------------------------------------|
G|(2)----------------0-------0-----------------------------------------------|
D|-0---------------2-----------2--3---------3-3-3-3/5-5-5-5------------------|
A|-0-------------3----------------3---------3-3-3-3/5-5-5-5------------------|
D|-0------------------------------3---------3-3-3-3/5-5-5-5------------------|

e|---------------0-----------------------------------------------------------|
B|(3)------------1-----------------------------------------------------------|
G|(2)------------0-----------------------------------------------------------|
D|-0-------------2------------3----------------------------------------------|
A|-0-------------3------------3-------------3-3-3---2-2-2---3-3-3------------|
D|-0--------------------------3-------------3-3-3---2-2-2---3-3-3------------|

                                            PM-------------------|

Then go back into the distorted chorus.

[Chorus]


e|---------------------------------------------------------------------------|
B|---------------------------------------------------------------------------|
G|------------5--------------------------------------------------------------|
D|-0----------5----------3---------------------------------------------------| 
A|-0----------3----------3---------------------------------------------------|
D|-0---------------------3------2-3-5-3-2-3-5-3-2-3--------------------------|

e|---------------------------------------------------------------------------|
B|---------------------------------------------------------------------------|
G|------------5--------------------------------------------------------------|
D|-0----------5----------3---------------------------------------------------|
A|-0----------3----------3----------3-3-3---2-2-2---3-3-3--------------------|
D|-0---------------------3----------3-3-3---2-2-2---3-3-3--------------------|

                                    PM--------------------|

e|---------------------------------------------------------------------------|
B|---------------------------------------------------------------------------|
G|------------5--------------------------------------------------------------|
D|-0----------5----------3---------------------------------------------------| 
A|-0----------3----------3---------------------------------------------------|
D|-0---------------------3------2-3-5-3-2-3-5-3-2-3--------------------------|

e|---------------------------------------------------------------------------|
B|---------------------------------------------------------------------------|
G|------------5--------------------------------------------------------------|
D|-0----------5----------3---------------------------------------------------|
A|-0----------3----------3----------3-3-3---2-2-2---3-3-3--------------------|
D|-0---------------------3----------3-3-3---2-2-2---3-3-3--------------------|

                                    PM--------------------|


************************************

| (n) Ghost note
| h   Hammer-on
| ph  Pinch Harmonic
| p   Pull-off
| /   Slide up
| \   Slide down
| PM  Palm mute

************************************

            
            
Suggest correction
Creating personal tab
Creating personal tab
You can edit any tab online and save it as your Personal.

You can edit, replace or remove any tab part or add personal notes – all changes will be seen only by you.

Personal tabs can be accessed anytime from any device, even offline.
Learn more »
Give kudos to tab author, rate the tab!
1 2 3 4 5
comments
print report bad tab
guest
You may want to rate the tab now too:
select rating
Wanna post a correction for this tab? Suggest correction