Oops, an error
Loading. Please wait.

Wicked End Tab

version 1
version 1
18,359 views 15 this week
7 commentsread comments
1 2 3 4 5
excellent!
x 5
add to favorites
launch autoscroll
font size
0
reset
how to read this tab
guitar tuner
Tab Pro tools
  • play this tab
  • loop segment
  • change instrument
  • show fretboard
  • metronome
×
Best way to learn
"Wicked End"
Autoscroll
slow
fast
+/-
esc
set tempo
stop
Contributor
Difficulty
Tuning
advanced
D A D G B E
-------------------------------------------------------------------------------
                             SONG NAME - Band Name
-------------------------------------------------------------------------------
Tabbed by:
Email:

Tuning: Drop D (D A D G B E)

h= hammer on
p= pull off
...= palm mute
b = bend
[] =what the bent note should sound like
{} = bring the bent note back to the note in these.
() = note is not struck; ghost note
x = muted string

This is all done by one guitar, Synyster Gates, it's a really advanced solo. 
This tab comes out of the tab book, so it should be accurate. Good luck.


e|-13b[15]~~~~~~~---------------------------------------------------------------|
B|---------------13b[15]--{13}\12 10--------------------------------------------|
G|-----------------------------------13p12h13p12\-11-\10-9~~~/17\13~~~~~(13)\\\-|
D|------------------------------------------------------------------------------|
A|------------------------------------------------------------------------------|
D|------------------------------------------------------------------------------|


e|------------------15-17-18-15-----------------15-18-20-18-14---------------------------------|
B|--------8h12-13-15-----------15-------------15--------------17-15-10-11-13-11-10-------10-11-|
G|------10-----------------------15---------17------------------------------------10\9-10------|
D|-----8---------------------------17-----17---------------------------------------------------|
A|-7-10------------------------------17-17-----------------------------------------------------|
D|---------------------------------------------------------------------------------------------|


e|-9-10-9-9-------------------------------------------------------------------------------|
B|---------11-10-----13b[15]~~~-[15]~~~10-----------13-14-15-------------------14b[15]~~~-|
G|--------------10-9---------------------10-13h14-15--------14b[15]~~~~~--14h15-----------|
D|----------------------------------------------------------------------15----------------|
A|----------------------------------------------------------------------------------------|
D|----------------------------------------------------------------------------------------|


e|-------------------------------------------------17h18p17--17-18-19-20-(20)b[22]-20b[22]-{20}-|
B|-15h17-15h17p15--15-17-18-19b[20]~~~--18b[20]~~~~--------21-----------------------------------|
G|---------------18-----------------------------------------------------------------------------|
D|----------------------------------------------------------------------------------------------|
A|----------------------------------------------------------------------------------------------|
D|----------------------------------------------------------------------------------------------|


e|-17-22-17--20-------17-16-13-15-13--16-17-18~~~15\12/18\12-15p13p12h15p12--15p13---------------------|
B|---------18--18-------------------15--------------------------------------------15p13----------------|
G|---------------17\14-----------------------------------------------------15----------15p14h15p14h15\-|
D|-----------------------------------------------------------------------------------------------------|
A|-----------------------------------------------------------------------------------------------------|
D|-----------------------------------------------------------------------------------------------------|



e|-----------------------------------17b[18]-{17}-----------------------------------------16b[17]-{16}-|
B|-------------------------------------------------16-15-14----15-17-17b[18]-{17}-15-14-15-------------|
G|-14-15-16-17-17b[19]~~~--(17)\14-14------------15----------------------------------------------------|
D|-----------------------------------------------------------------------------------------------------|
A|-----------------------------------------------------------------------------------------------------|
D|-----------------------------------------------------------------------------------------------------|


e|-13-12-13/18--------------------------x-15-15------18\15-----------------------17-18-17--17-18-17-|
B|------------18--15--------------------x-----------------------18b[20]~~{18}\-18--------18---------|
G|--------------15--15-16-17b[19]~~{17}\-------15/19------17--15------------------------------------|
D|----------------------------------------------------------17--------------------------------------|
A|--------------------------------------------------------------------------------------------------|
D|--------------------------------------------------------------------------------------------------|


e|-----------------------------------13-15-17-|
B|-14--14-15-14--14-15-14-15-14-15-17---------|
G|---15--------15-----------------------------|
D|--------------------------------------------|
A|--------------------------------------------|
D|--------------------------------------------|


e|-17-13-------------------13-16-17-13-------------------13-17-18-13-----------------13-17-|
B|------15---------------15-----------15---------------15-----------14-------------12------|
G|--------14-----------14---------------14-----------14---------------15---------15--------|
D|----------15-11-12-15-------------------15-11-12-15-------------------15--12-15----------|
A|------------------------------------------------------------------------15---------------|
D|-----------------------------------------------------------------------------------------|


e|-18-13-----------------13-17-18-15-----------------13-17-18-15-----------------15-18-|
B|------14-------------12-----------15-------------13-----------15-------------14------|
G|--------15---------15---------------15---------15---------------15---------15--------|
D|----------15--12-15-------------------17-----17-------------------17-----17----------|
A|------------15--------------------------17-17-----------------------17-17------------|
D|-------------------------------------------------------------------------------------|


e|-17-13-------------------13-17-21-17-----------------18--20b[22]~-------------------|
B|------15---------------15-----------18-----------17--------------20b[22]--(20)\-----|
G|--------14-----------14---------------18-------17------------------------------\----|
D|----------15-12-12-15-------------------19---------19---------------------------\---|
A|------------------------------------------19-20----------------------------------\--|
D|----------------------------------------------------------------------------------\-|
      *The slant at the end of the above part ^^^^^, is pushing the wammy bar down slowly.


e|---------------------------------------------------------------------------|
B|---------------------------------------------------------------------------|
G|---------------------------------------------------------------------------|
D|---------------------------------------------------------------------------|
A|-x/x/x/x/x/x/x/x/x/x/x/x/x/x/x/x/x/x/x/x/x/x/x/x/x/x/x/x/--x/x/x/----------|
D|---------------------------------------------------------------------------|
  *This is just a pick slide from the first fret down to the pickups.*

That's it. Yeah, it is crazy. Good luck on getting the sweep picking down. Rate it and comment it.


comments
print report bad tab
7 comments total. Showing first comments.
+1 reply
LP GD wrote on June 6 2007, 12:09 pm

great tab rate it 5

+1 reply
DRaGAONpie wrote on June 18 2007, 06:35 pm

its hard but good tab

0 reply
black_roses_jmt wrote on August 10 2007, 03:08 am

my sweep picking is no where near good nuff for this, so i plays it slowly, but still sounds accurate nuff for me...

I want to post or [tab]
guest
You may want to rate the tab now too:
select rating
Please do not post tabs as comments. Select "correction" instead!