Oops, an error
Loading. Please wait.

Erebus tab

version 1
version 1

Whole song

Interactive

475 views 9 this week
no commentswrite comment
1 2 3 4 5
1 last vote to show rating
add to favorites
×
Save as Personal and add changes to this tab that will be seen only by you. Learn more ›
×
You can save this tab as Personal to edit and correct it or add notes. All changes will be seen only by you. Learn more »
launch autoscroll
font size
0
reset
how to read this tab
guitar tuner
edit
Autoscroll
slow
fast
+/-
esc
set tempo
stop
I learnt this from covers that people put up in G# and from a video Chris Cougan put up of the rhythm intro 
bit. Should be mostly correct now

Tuning drop F (F-C-F-A#-D#-G#-C-F)
Check the cover on my YouTube channel thegodthathatesall 


[Verse]

 (Verse Riff 1 lead)                          Ending part 1       Ending part 2
D |-------------------------------------------|-----------------|------------------------------|
C |-15-------------------14-----15------------|-11-11-----------|-14-14------------14-14-15-15-|
G#|----0-0-14-0-0-15-0-0----0-0----0-0-14-0-0-|-------12-12-9-9-|------15-15-12-12-------------|
D#|-------------------------------------------|-----------------|------------------------------|
A#|-------------------------------------------|-----------------|------------------------------|
F |-------------------------------------------|-----------------|------------------------------|
C |-------------------------------------------|-----------------|------------------------------|
F |-------------------------------------------|-----------------|------------------------------|

F |-------------------------------------------------------|---------------|-------------------------------|
C |-------------------------------------------------------|---------------|-------------------------------|
G#|-------------------------------------------------------|---------------|-------------------------------|
D#|-12-------------------------11-------12----------------|-8-8-----------|-11-11-------------11-11-12-12-|
A#|----------12-------13-------------------------12-------|-----10-10-7-7-|-------12-12-10-10-------------|
F |-------------------------------------------------------|---------------|-------------------------------|
C |-------------------------------------------------------|---------------|-------------------------------|
F |----10-10----10-10----10-10----10-10----10-10----10-10-|---------------|-------------------------------|




[Chorus]

     (Repeat x4)                          (Play on 3 and 4 of other riffs)
D |-----------------------------------------|-------------|
C |-----------------------------------------|-15\22/15\17-|
G#|-9b--7----10-7-9---10-7-7---10-7-9-------|-------------|
D#|----------------------------------8-7----|-------------|
A#|-----------------------------------------|-------------| lead
F |-----------------------------------------|-------------|
C |-----------------------------------------|-------------|
F |-----------------------------------------|-------------|

D |--------------|
C |--------------|
G#|--------------|
D#|--------------|
A#|--------------|
F |-10----5----6-|
C |-10----5----6-|
F |-10----5----6-|




[Bridge/Breakdown]

(Riff 1.)
F |------------------|
C |------------------|
G#|------------------|
D#|-12------------11-| tremolo picked
A#|------------------|
F |-10-6-9--10-6-5-6-|
C |------------------|
F |-10---------6-5-6-|

F |---------------------------------------|
C |---------------------------------------|
G#|---------------------------------------|
D#|---------------------------------------|
A#|---------------------------------------|
F |-5-----------------------5-------------|
C |-3-6-5-3-5-6-5--5-3-5-6--3-6-5-3-5-6-3-|
F |---6-5-3-5-6-5--5-3-5-6----6-5-3-5-6-3-|

(Riff 4.)
F |---------------------------------------------------------------------------------------------------------|
C |---------------------------------------------------------------------------------------------------------|
G#|-7-7-7-7-------------------------------------------------------------------------------------------------|
D#|---------8-8-8-8-7-7-7-7-5-5-5-5-7-7-7-7-8-8-8-8-7-7-7-7-7-7-7-7-7-7-7-7-5-5-5-5-7-7-7-7-8-8-8-8-8-8-8-8-|
A#|---------------------------------------------------------------------------------------------------------|
F |---------------------------------------------------------------------------------------------------------|
C |---------------------------------------------------------------------------------------------------------|
F |---------------------------------------------------------------------------------------------------------|

                 There's an octave to this riff

F |---------------------------------------------------------------------------------------------------------|
C |---------------------------------------------------------------------------------------------------------|
G#|-7-7-7-7-------------------------------------------------------------------------------------------------|
D#|---------8-8-8-8-7-7-7-7-5-5-5-5-7-7-7-7-8-8-8-8-5-5-5-5-5-5-5-5-5-5-5-5-5-5-5-5-5-5-5-5-5-5-5-5-5-5-5-5-|
A#|---------------------------------------------------------------------------------------------------------|
F |---------------------------------------------------------------------------------------------------------|
C |---------------------------------------------------------------------------------------------------------|
F |---------------------------------------------------------------------------------------------------------|

[Chorus]

      (Repeat x4)                        (Play on 3 and 4 of other riffs)
D |-----------------------------------------|-------------|
C |-----------------------------------------|-15\22/15\17-|
G#|-9b--7----10-7-9---10-7-7---10-7-9-------|-------------|
D#|----------------------------------8-7----|-------------|
A#|-----------------------------------------|-------------| lead
F |-----------------------------------------|-------------|
C |-----------------------------------------|-------------|
F |-----------------------------------------|-------------|

D |--------------|
C |--------------|
G#|--------------|
D#|--------------|
A#|--------------|
F |-10----5----6-|
C |-10----5----6-|
F |-10----5----6-|


[Riff order]

Verse Riff 1
Verse Riff 2 (x4)
Verse Riff 1
Verse Riff 3
Chorus x4
Verse Riff 1
Verse Riff 2 (x2)
Verse Riff 1
Verse Riff 3
Bridge/Breakdown riff 1 x4
Play riffs 2 and 4 simultaneously x2
Riff 3 x2
Riff 4(add octave) x2
Chorus x8



************************
|/           Slide  up
|\           Slide down
************************ 

            
            
Suggest correction
Creating personal tab
Creating personal tab
You can edit any tab online and save it as your Personal.

You can edit, replace or remove any tab part or add personal notes – all changes will be seen only by you.

Personal tabs can be accessed anytime from any device, even offline.
Learn more »
Give kudos to tab author, rate the tab!
1 2 3 4 5
comments
print report bad tab
guest
You may want to rate the tab now too:
select rating
Wanna post a correction for this tab? Suggest correction