Oops, an error
Loading. Please wait.

Hollow Planet Tab

version 1
version 1

Whole song

Interactive

28 views 3 this week
no commentswrite comment
1 2 3 4 5
2 more votes to show rating
add to favorites
launch autoscroll
font size
0
reset
how to read this tab
guitar tuner
Autoscroll
slow
fast
+/-
esc
set tempo
stop
Help us to improve Ultimate-Guitar.com Take our survey!
×
Author
Difficulty
Tuning
intermediate
C F A# D# G C
This song is the first song from their album Tyrant. I understand that there are guitar pro versions of this,
but none text only. I got the unfinished tab from Anthony Barone from Aegaeon, who toured with them and saw
them play this a lot, and he covered it. So here's a text only version of it. I will eventually upload a 
complete album tab once I have tabbed every song out.

Tuning: Drop F 8 string (FCFA#D#G#CF)
Tempo: 270bpm


[Riff 1]

Guitar 1 (tremolo pick all high notes. It is really quick, should be about 4 each)
F |-------------------------------------------------------------------------------------|
C |-------------------------------------------------------------------------------------|
G#|----------17-----------------16--------------------------17------------------16---16-|
D#|-------------14-----------14---14-----15----14--------------14------------14----14---|
A#|-----------------------------------12----11------------------------------------------|
F |-------------------------------------------------------------------------------------|
C |-0-0-0--0--------0-0-0--0-----------------------0-0-0--0--------0-0-0--0-------------|
F |-0-0-0--0--------0-0-0--0-----------------------0-0-0--0--------0-0-0--0-------------|

Guitar 2
F |--------------------------------------------------------------------------------------|
C |--------------------------------------------------------------------------------------|
G#|--------------------------------------------------------------------------------------|
D#|--------------------------------------------------------------------------------------|
A#|----------15------------------14-------------------------15------------------14----14-|
F |-------------12------------12----12----13---12--------------12------------12----12----|
C |-0-0-0--0---------0-0-0--0----------10----9-----0-0-0--0--------0-0-0--0--------------|
F |-0-0-0--0---------0-0-0--0----------------------0-0-0--0--------0-0-0--0--------------|


Guitars 3 (just pretty well repeat this)
F |-------------------------------------------|
C |-------------------------------------------|
G#|-------------------------------------------|
D#|-------------------------------------------|
A#|-------------------------------------------|
F |-------------------------------------------|
C |-0-0-0--0--4-1-0--0-0-0--0--4-1-0-1-0-0-1--|
F |-0-0-0--0--4-1-0--0-0-0--0--4-1-0-1-0-0-1--|


[Riff 2]

Guitar 1
F |---------------------------------------------------------------------------------------------|
C |---------------------------------------------------------------------------------------------|
G#|-------14-10-------------14----14----15----15----------------------------14-9-14-9-12-9-12-9-|
D#|-15-12-------12-14-11-14----12----12----12----12-14-11-15-11-14-11-15-11---------------------|
A#|---------------------------------------------------------------------------------------------|
F |---------------------------------------------------------------------------------------------|
C |---------------------------------------------------------------------------------------------|
F |---------------------------------------------------------------------------------------------|

Guitar 2
F |---------------------------------------------------------------------------------------|
C |---------------------------------------------------------------------------------------|
G#|---------------------------------------------------------------------------------------|
D#|---------------------------------------------------------------------------------------|
A#|-------12-8------------12----12----13----13------------------------12-7-12-7-10-7-10-7-|
F |-13-10------10-12-9-12----10----10----10----10-12-9-13-9-12-9-13-9---------------------|
C |---------------------------------------------------------------------------------------|
F |---------------------------------------------------------------------------------------|

Guitars 3
F |------------------|
C |------------------|
G#|------------------|
D#|------------------|
A#|-12-------11------|
F |-10-(x16)-9-(x16)-|
C |-10-------9-------|
F |-10-------9-------|


[Riff 3]

Guitar 1
F |-13---12----13---12---9---10---9---13---12----13---12---9-|
C |----------------------------------------------------------|
G#|----------------------------------------------------------|
D#|----------------------------------------------------------|
A#|----------------------------------------------------------|
F |----------------------------------------------------------|
C |----------------------------------------------------------|
F |----------------------------------------------------------|

Guitar 2
F |---------------------------------------------------|
C |---------------------------------------------------|
G#|---------------------------------------------------|
D#|---------------------------------------------------|
A#|---------------------------------------------------|
F |-5------5------6------6-------2------2------3------|
C |-5-(x6)-5-(x6)-5-(x6)-5-(x8)--2-(x6)-2-(x6)-2-(x8)-|
F |-5------5------5------5-------2------2------2------|

Guitar 3 play once
F |----------------------------------------------------|
C |----------------------------------------------------|
G#|----------------------------------------------------|
D#|----------------------------------------------------|
A#|----------------------------------------------------|
F |-5----------------------------2---------------------|
C |-5----------------------------2---------------------|
F |-5----------------------------2---------------------|

Guitar 3 play for rest of times
F |--------------------------------------------------|
C |--------------------------------------------------|
G#|--------------------------------------------------|
D#|--------------------------------------------------|
A#|--------------------------------------------------|
F |-0------0------0------0------0------0------0------|
C |-0-(x6)-0-(x6)-0-(x6)-0-(x8)-0-(x6)-0-(x6)-0-(x8)-|
F |-0------0------0------0------0------0------0------|


Guitars 1, 2 & 3 then all play this
F |--------------------------------------------------|
C |--------------------------------------------------|
G#|--------------------------------------------------|
D#|--------------------------------------------------|
A#|--------------------------------------------------|
F |-0------0------0------0------0------0------0------|
C |-0-(x6)-0-(x6)-0-(x6)-0-(x8)-0-(x6)-0-(x6)-0-(x8)-|
F |-0------0------0------0------0------0------0------|


[Part 4]

Guitar 1
F |-10/12---10-8--10-8--7-------7-8-7--10/12---10-8--10-8--7-|
C |--------------------------10------------------------------|
G#|----------------------------------------------------------|
D#|----------------------------------------------------------|
A#|----------------------------------------------------------|
F |----------------------------------------------------------|
C |----------------------------------------------------------|
F |----------------------------------------------------------|

Guitars 2 & 3
F |--------------------------------------------------------------------------|
C |--------------------------------------------------------------------------|
G#|--------------------------------------------------------------------------|
D#|--------------------------------------------------------------------------|
A#|--------------------------------------------------------------------------|
F |--------------------------------------------------------------------------|
C |----------------5-(x8)----------------------------------------------------|
F |-5-(x16)-8-(x8)--------7-(x16)-5-7-8-7-(x16)-0-(x16)-5-(x8)-8-(x8)-7-(x8)-|


[Breakdown]

Guitar 1 (play half time, not 270, so 135)(also, gradual bend and release on the 14)
F |--------------------------|
C |------------------16-(x8)-|
G#|-14-(x16)-13-(x8)---------|
D#|--------------------------|
A#|--------------------------|
F |--------------------------|
C |--------------------------|
F |--------------------------|


Guitars 2 & 3 (guitar 1 eventual joins in and then returns to above riff)
F |---------------------------------------------------------------------------------|
C |---------------------------------------------------------------------------------|
G#|---------------------------------------------------------------------------------|
D#|---------------------------------------------------------------------------------|
A#|---------------------------------------------------------------------------------|
F |---------------------------------------------------------------------------------|
C |-0--0-0-0-0--0--0--0---0-0-0-0--0--0--0--0--0--0-0-0-0--0--0--0-0-0-0--0--0--0-0-|
F |-1--1-1-1-1--1--1--1---1-1-1-1--1--1--1--1--1--1-1-1-1--1--1--1-1-1-1--1--1--0-0-|


[Riff 1]

Guitar 1 (tremolo pick all high notes. It is really quick, should be about 4 each)
F |-------------------------------------------------------------------------------------|
C |-------------------------------------------------------------------------------------|
G#|----------17-----------------16--------------------------17------------------16---16-|
D#|-------------14-----------14---14-----15----14--------------14------------14----14---|
A#|-----------------------------------12----11------------------------------------------|
F |-------------------------------------------------------------------------------------|
C |-0-0-0--0--------0-0-0--0-----------------------0-0-0--0--------0-0-0--0-------------|
F |-0-0-0--0--------0-0-0--0-----------------------0-0-0--0--------0-0-0--0-------------|

Guitar 2
F |--------------------------------------------------------------------------------------|
C |--------------------------------------------------------------------------------------|
G#|--------------------------------------------------------------------------------------|
D#|--------------------------------------------------------------------------------------|
A#|----------15------------------14-------------------------15------------------14----14-|
F |-------------12------------12----12----13---12--------------12------------12----12----|
C |-0-0-0--0---------0-0-0--0----------10----9-----0-0-0--0--------0-0-0--0--------------|
F |-0-0-0--0---------0-0-0--0----------------------0-0-0--0--------0-0-0--0--------------|


Guitars 3 (just pretty well repeat this)
F |-------------------------------------------|
C |-------------------------------------------|
G#|-------------------------------------------|
D#|-------------------------------------------|
A#|-------------------------------------------|
F |-------------------------------------------|
C |-0-0-0--0--4-1-0--0-0-0--0--4-1-0-1-0-0-1--|
F |-0-0-0--0--4-1-0--0-0-0--0--4-1-0-1-0-0-1--|


[Riff 2]

Guitar 1
F |----------------------------------------------------------------------------------------------|
C |----------------------------------------------------------------------------------------------|
G#|-------14-10-------------14----14----15----15-----------------------------14-9-14-9-12-9-12-9-|
D#|-15-12-------12-14-11-14----12----12----12----12--14-11-15-11-14-11-15-11---------------------|
A#|----------------------------------------------------------------------------------------------|
F |----------------------------------------------------------------------------------------------|
C |----------------------------------------------------------------------------------------------|
F |----------------------------------------------------------------------------------------------|

Guitar 2
F |----------------------------------------------------------------------------------------|
C |----------------------------------------------------------------------------------------|
G#|----------------------------------------------------------------------------------------|
D#|----------------------------------------------------------------------------------------|
A#|-------12-8------------12----12----13----13-------------------------12-7-12-7-10-7-10-7-|
F |-13-10------10-12-9-12----10----10----10----10--12-9-13-9-12-9-13-9---------------------|
C |----------------------------------------------------------------------------------------|
F |----------------------------------------------------------------------------------------|

Guitars 3
F |------------------|
C |------------------|
G#|------------------|
D#|------------------|
A#|-12-------11------|
F |-10-(x16)-9-(x16)-|
C |-10-------9-------|
F |-10-------9-------|


[Part 4]

Guitar 1
F |-10/12---10-8--10-8--7-------7-8-7--10/12---10-8--10-8--7-|
C |--------------------------10------------------------------|
G#|----------------------------------------------------------|
D#|----------------------------------------------------------|
A#|----------------------------------------------------------|
F |----------------------------------------------------------|
C |----------------------------------------------------------|
F |----------------------------------------------------------|

Guitars 2 & 3
F |--------------------------------------------------------------------------|
C |--------------------------------------------------------------------------|
G#|--------------------------------------------------------------------------|
D#|--------------------------------------------------------------------------|
A#|--------------------------------------------------------------------------|
F |--------------------------------------------------------------------------|
C |----------------5-(x8)----------------------------------------------------|
F |-5-(x16)-8-(x8)--------7-(x16)-5-7-8-7-(x16)-0-(x16)-5-(x8)-8-(x8)-7-(x8)-|


[Final Breakdown]

Guitar 1 (half time as with previous breakdown)
F |-13-12------------|
C |------------------|
G#|-------10-9----10-|
D#|------------------|
A#|------------------|
F |------------------|
C |------------------|
F |------------------|


Guitars 2 & 3 (gradual bend and release on the F# note)
F |-----------------------------------------|
C |-----------------------------------------|
G#|-----------------------------------------|
D#|-----------------------------------------|
A#|-----------------------------------------|
F |-----------------------------------------|
C |-0-----0-0--0-0----0-0-------------------|
F |-1-----1-1--1-1----1-1---1-(x8)-0-1-(x8)-|



************************************

| /  Slide up

************************************
Suggest correction
Give kudos to tab author, rate the tab!
1 2 3 4 5
comments
print report bad tab
guest
You may want to rate the tab now too:
select rating
Wanna post a correction for this tab? Suggest correction