Oops, an error
Loading. Please wait.

Odium tab

124 views 6 this week
no commentswrite comment
1 2 3 4 5
3 more votes to show rating
add to favorites
×
Save as Personal and add changes to this tab that will be seen only by you. Learn more ›
×
You can save this tab as Personal to edit and correct it or add notes. All changes will be seen only by you. Learn more »
launch autoscroll
font size
0
reset
how to read this tab
guitar tuner
edit
Autoscroll
slow
fast
+/-
esc
set tempo
stop
About this tab version
This tab provides for all three guitars. Was this info helpful? Yes No
This is what I can gather is how the masterpiece 'Odium' is played. This is 100% by ear so it could be wrong
in some parts. Hopefully this isn't too confusing to read. I have tabbed it out as the guitars play. The
guitars should line up. Just listen to the song if you don't get it. . Make sure you read which guitar is 
which. For the clean guitar parts, it was very hard to hear precise notes in some sections so a lot of it is 
guesstimating. In this song you will hear and play riffs that feel familiar to other songs on the album 
(Erebus, Prismatic Abyss etc). I will have a cover up shortly that will demonstrate this tab

Tuning-Drop F 8 string (FCFA#D#g#cf)
Tempo-Slow parts (134BPM) fast parts (268BPM)

There are 3 guitars which will be labelled 1, 2, 3 (1 lead, 2 lead harmony (clean), 3 rhythm)
For verses, Guitar 2 is omitted but can play guitar 3 parts

[Intro]
Guitars 1, 2; 3 play this x2
F |---------------------------------------------------------------|
C |---------------------------------------------------------------|
G#|---------------------------------------------------------------|
D#|-9-10-9--9------7-9-10------10--9-9--9-----7-9-10------13------|
A#|-9-10-9--9------7-9-10------10--9-9--9-----7-9-10------13------|
F |-7--8-7--7------5-7--8-------8--7-7-7------5-7--8------11------|
C |-7--8-7--7------5-7--8-------8--7-7-7------5-7--8------11------|
F |-7--8-7--7------5-7--8-------8--7-7-7------5-7--8------11------|

[INTRO 2] (x2 all guitars)
Guitar 1 (there is also an octave on this guitar as well)
F |---------------------------------------------------------------------|
C |---------------------------------------------------------------------|
G#|-11~~~~~~~~~~~~~-14~~~~~~~~~~~~~~~11~~~~~~~~~~~~~~~~14~~~~~~~12~~~~~~|
D#|---------------------------------------------------------------------|
A#|---------------------------------------------------------------------|
F |---------------------------------------------------------------------|
C |---------------------------------------------------------------------|
F |---------------------------------------------------------------------|

Guitar 2 (clean)
F |-----------------5---5---------------------------5---5---------|
C |-5---5---5---5-----------8---8---5---5---5---5---------8---8---|
G#|---8---8---8---8---8---8---8---8---8---8---8---8---8-----8---8-|
D#|---------------------------------------------------------------|
A#|---------------------------------------------------------------|
F |---------------------------------------------------------------|
C |---------------------------------------------------------------|
F |---------------------------------------------------------------|

Guitar 3
F |---------------------------------------------------------------|
C |---------------------------------------------------------------|
G#|---------------------------------------------------------------|
D#|-10-9-9--9------7-9-10------10-9-9--9------7-9-10------13------|
A#|-10-9-9--9------7-9-10------10-9-9--9------7-9-10------13------|
F |-8--7-7--7------5-7-8-------8--7-7--7------5-7-8-------11------|
C |-8--7-7--7------5-7-8-------8--7-7--7------5-7-8-------11------|
F |-8--7-7--7------5-7-8-------8--7-7--7------5-7-8-------11------|

[Verse 1] riff 1 
Guitar 1 (lines up with guitar 3)
F |---------------------------------------------------------------------------------|
C |---------------------------------------------------------------------------------|
G#|---------------------------------------------------------------------------------|
D#|-----------------------------------------------------------------------9-9-9-9-9-|
A#|-----------------------------------------------------------------------9-9-9-9-9-|
F |-----------------------------------------------------------------------7-7-7-7-7-|
C |-----------------------------------------------------------------------7-7-7-7-7-|
F |-----------------------------------------------------------------------7-7-7-7-7-|

Guitar 3
F |--------------------------------------------------------------------------|
C |--------------------------------------------------------------------------|
G#|--------------------------------------------------------------------------|
D#|-9-----------------8------------------------------------------------------|
A#|-------------------------------------9-----------------10-----------------|
F |--------------------------------------------------------------------------|
C |--------------------------------------------------------------------------|
F |---7-7-7-7-7-7-7-7---7-7-7-7-7-7-7-7---7-7-7-7-7-7-7-7----7-7-7-7-7-7-7-7-|
P.m.--. . . . . . . .   . . . . . . . .   . . . . . . . .    . . . . . . . . 

Guitar 1
F |---------------------------------------------------------------------------------|
C |---------------------------------------------------------------------------------|
G#|---------------------------------------------------------------------------------|
D#|-------------------------------------9-9-8-8-----------------------------------9-|
A#|---------------------------------------------10-10-9-9-------------------------9-|
F |-------------------------------------------------------11-11-10-10-------------7-|
C |-------------------------------------------------------------------12-12-11-11-7-|
F |-------------------------------------------------------------------------------7-|
P.m.                                .  .  .  .  .  .  .  .  .  .  .  .  .  .  .  .

Guitar 3
F |-------------------------------------------------------------------------------|
C |-------------------------------------------------------------------------------|
G#|-------------------------------------------------------------------------------|
D#|-9-----------------8-----------------9-9-8-8-----------------------------------|
A#|---------------------------------------------10-10-9-9-------------------------|
F |-------------------------------------------------------11-11-10-10-------------|
C |-------------------------------------------------------------------12-12-11-11-|
F |---7-7-7-7-7-7-7-7---7-7-7-7-7-7-7-7-------------------------------------------|
P.m.  . . . . . . . .   . . . . . . . . . . . . . . . . . . . . . . . . . . . . .

Guitar 3
F |-------------------------------------|
C |-------------------------------------|
G#|-------------------------------------|
D#|-9-----------------8-----------------|
A#|-------------------------------------|
F |-------------------------------------|
C |-------------------------------------|
F |---7-7-7-7-7-7-7-7---7-7-7-7-7-7-7-7-|
P.m.  . . . . . . . .   . . . . . . . . 

[Verse 2]riff 2
Guitar 1 (lines up with guitar 3)
F |----------------------------------------------------------------------------------------------------------|
C |----------------------------------------------------------------------------------------------------------|
G#|----------------------------------------------------------------------------------------------------------|
D#|-12-------------------------11----------------------------------------------------------------------------|
A#|-------------------------------------------------------12--------------------------13---------------------|
F |----------------------------------------------------------------------------------------------------------|
C |----------------------------------------------------------------------------------------------------------|
F |----10-10-10-10-10-10-10-10----10-10-10-10-10-10-10-10-----10-10-10-10-10-10-10-10----10-10-10-10-10-10-10|
P.m.    .  .  .  .  .  .  .  .     .  .  .  .  .  .  .  .      .  .  .  .  .  .  .  .     .  .  .  .  .  .  . 

Guitar 3
F |--------------------------------------------------------------------------|
C |--------------------------------------------------------------------------|
G#|--------------------------------------------------------------------------|
D#|-9-----------------8------------------------------------------------------|
A#|-------------------------------------9-----------------10-----------------|
F |--------------------------------------------------------------------------|
C |--------------------------------------------------------------------------|
F |---7-7-7-7-7-7-7-7---7-7-7-7-7-7-7-7---7-7-7-7-7-7-7-7----7-7-7-7-7-7-7-7-|
P.m.  . . . . . . . .   . . . . . . . .   . . . . . . . .    . . . . . . . . 

Guitar 1
F |-------------------------------------------------------------------------------------------------------|
C |-------------------------------------------------------------------------------------------------------|
G#|-------------------------------------------------------------------------------------------------------|
D#|-12-------------------------11-------------------------12-12-12-12-11h12p11----11----------------------|
A#|----------------------------------------------------------------------------13----13-13-13-13-12h13p12-|
F |-------------------------------------------------------------------------------------------------------|
C |-------------------------------------------------------------------------------------------------------|
F |----10-10-10-10-10-10-10-10----10-10-10-10-10-10-10-10-------------------------------------------------|
P.m.    .  .  .  .  .  .  .  .     .  .  .  .  .  .  .  .  .  .  .  .           .     .  .  .  .

Guitar 3
F |---------------------------------------------------------------------|
C |---------------------------------------------------------------------|
G#|---------------------------------------------------------------------|
D#|-9-----------------8-----------------8-8-8-8-7h8p7---7---------------|
A#|---------------------------------------------------9---9-9-9-9-8h9p8-|
F |---------------------------------------------------------------------|
C |---------------------------------------------------------------------|
F |---7-7-7-7-7-7-7-7---7-7-7-7-7-7-7-7---------------------------------|
P.m.  . . . . . . . .   . . . . . . . . . . . .       .   . . . . 

F |-------------------------------------------------------|
C |-------------------------------------------------------|
G#|-------------------------------------------------------|
D#|-12-------------------------11-------------------------|
A#|-------------------------------------------------------|
F |-------------------------------------------------------|
C |-------------------------------------------------------|
F |----10-10-10-10-10-10-10-10----10-10-10-10-10-10-10-10-|
P.m.    .  .  .  .  .  .  .  .     .  .  .  .  .  .  .  .

Guitar 3
F |-------------------------------------|
C |-------------------------------------|
G#|-------------------------------------|
D#|-9-----------------8-----------------|
A#|-------------------------------------|
F |-------------------------------------|
C |-------------------------------------|
F |---7-7-7-7-7-7-7-7---7-7-7-7-7-7-7-7-|
P.m.  . . . . . . . .   . . . . . . . . 

[Verse]riff 3
Guitar 1 (for sake of lining up the tab, I'm moving it to the 7th position but it's played in 12th on D#)
F |------------------------------------------------------------------------|
C |------------------------------------------------------------------------|
G#|---7-7-7-7-6h7p6---6-------------------7-7-7-7-6h7p6----6---------------|
D#|-----------------8---8-8-8-8-7h8p7--------------------8---8-8-8-8-7h8p7-|
A#|------------------------------------------------------------------------|
F |------------------------------------------------------------------------|
C |------------------------------------------------------------------------|
F |------------------------------------------------------------------------|
P.m.  . . . .       .   . . . .           . . . .        .   . . . . 

Guitar 3
F |--------------------------------------------------------------------------|
C |--------------------------------------------------------------------------|
G#|--------------------------------------------------------------------------|
D#|-9-----------------8------------------------------------------------------|
A#|-------------------------------------9-----------------10-----------------|
F |--------------------------------------------------------------------------|
C |--------------------------------------------------------------------------|
F |---7-7-7-7-7-7-7-7---7-7-7-7-7-7-7-7---7-7-7-7-7-7-7-7----7-7-7-7-7-7-7-7-|
P.m.  . . . . . . . .   . . . . . . . .   . . . . . . . .    . . . . . . . .

Guitar 1
F |---------------------------------------------------------------------|
C |---------------------------------------------------------------------|
G#|---7-7-7-7-6h7p6---6-----------------7-7-7-7-6h7p6---6---------------|
D#|-----------------8---8-8-8-8-7h8p7-----------------8---8-8-8-8-7h8p7-|
A#|---------------------------------------------------------------------|
F |---------------------------------------------------------------------|
C |---------------------------------------------------------------------|
F |---------------------------------------------------------------------|
P.m.  . . . .       .   . . . .         . . . .       .   . . . . 

Guitar 3
F |---------------------------------------------------------------------|
C |---------------------------------------------------------------------|
G#|---------------------------------------------------------------------|
D#|-9-----------------8-----------------8-8-8-8-7h8p7---7---------------|
A#|---------------------------------------------------9---9-9-9-9-8h9p8-|
F |---------------------------------------------------------------------|
C |---------------------------------------------------------------------|
F |---7-7-7-7-7-7-7-7---7-7-7-7-7-7-7-7---------------------------------|
P.m.  . . . . . . . .   . . . . . . . . . . . .       .   . . . . 

[Chorus](all guitars x2)
Guitar 1 (lines up with guitar 2)
F |--------------------------------------------------------------------------------------------------|
C |-12----------12-15-14-12-12----------11-12-11-----12----------12-15-14-12-12----------11-12-11----|
G#|----12-11-12----------------12-11-12----------12-----12-11-12----------------12-11-12----------12-|
D#|--------------------------------------------------------------------------------------------------|
A#|--------------------------------------------------------------------------------------------------|
F |--------------------------------------------------------------------------------------------------|
C |--------------------------------------------------------------------------------------------------|
F |--------------------------------------------------------------------------------------------------|

Guitar 2 (tremolo picked)
F |------------------------------------------------------------------|
C |------------------------------------------------------------------|
G#|-4-------4-7-6-4-4-------3-4-3----4-------4-7-6-4-4-------3-4-3---|
D#|---5-4-5-----------5-4-5-------5----5-4-5-----------5-4-5-------5-|
A#|------------------------------------------------------------------|
F |------------------------------------------------------------------|
C |------------------------------------------------------------------|
F |------------------------------------------------------------------|

Guitar 3 (first time through, play the low C, B, G# and G notes as tremolo picking, chords second time)
F |------------------------------------------------------------------|
C |------------------------------------------------------------------|
G#|------------------------------------------------------------------|
D#|-9-------------------------------8--------------------------------|
A#|-9-------------------------------8--------------------------------|
F |-7-------------------------------6--------------------------------|
C |-7-------------------------------6--------------------------------|
F |-7-------------------------------6--------------------------------|

Guitar 1 (lines up with guitar 2)
F |--------------------------------------------------------------------------------------------------|
C |-12----------12-15-14-12-12----------11-12-11-----12----------12-15-14-12-12----------11-12-11----|
G#|----12-11-12----------------12-11-12----------12-----12-11-12----------------12-11-12----------12-|
D#|--------------------------------------------------------------------------------------------------|
A#|--------------------------------------------------------------------------------------------------|
F |--------------------------------------------------------------------------------------------------|
C |--------------------------------------------------------------------------------------------------|
F |--------------------------------------------------------------------------------------------------|

Guitar 2 (tremolo picked)
F |------------------------------------------------------------------|
C |------------------------------------------------------------------|
G#|-4-------4-7-6-4-4-------3-4-3----4-------4-7-6-4-4-------3-4-3---|
D#|---5-4-5-----------5-4-5-------5----5-4-5-----------5-4-5-------5-|
A#|------------------------------------------------------------------|
F |------------------------------------------------------------------|
C |------------------------------------------------------------------|
F |------------------------------------------------------------------|

Guitar 3
F |------------------------------------------------------------------|
C |------------------------------------------------------------------|
G#|------------------------------------------------------------------|
D#|-5-------------------------------4--------------------------------|
A#|-5-------------------------------4--------------------------------|
F |-3-------------------------------2--------------------------------|
C |-3-------------------------------2--------------------------------|
F |-3-------------------------------2--------------------------------|

[Interlude]
Guitar 1
F |-14~~~~~~~~~~~17~~~~~~~~~~~~~~~14~~~~~~~~~~~~~~~17~~~~~~~15~~~~~|
C |----------------------------------------------------------------|
G#|----------------------------------------------------------------|
D#|----------------------------------------------------------------|
A#|----------------------------------------------------------------|
F |----------------------------------------------------------------|
C |----------------------------------------------------------------|
F |----------------------------------------------------------------|

Guitar 2 (clean)
F |-----------------5---5---------------------------5---5---------|
C |-5---5---5---5-----------8---8---5---5---5---5---------8---8---|
G#|---8---8---8---8---8---8---8---8---8---8---8---8---8-----8---8-|
D#|---------------------------------------------------------------|
A#|---------------------------------------------------------------|
F |---------------------------------------------------------------|
C |---------------------------------------------------------------|
F |---------------------------------------------------------------|

Guitar 3
F |---------------------------------------------------------------------|
C |---------------------------------------------------------------------|
G#|-11~~~~~~~~~~~~~~14~~~~~~~~~~~~~~~11~~~~~~~~~~~~~~~~14~~~~~~~12~~~~~~|
D#|---------------------------------------------------------------------|
A#|---------------------------------------------------------------------|
F |---------------------------------------------------------------------|
C |---------------------------------------------------------------------|
F |---------------------------------------------------------------------|

[Re - Intro] (x2)
Guitar 1 (there is also an octave on this guitar as well)
F |---------------------------------------------------------------------|
C |---------------------------------------------------------------------|
G#|-11~~~~~~~~~~~~~~14~~~~~~~~~~~~~~~11~~~~~~~~~~~~~~~~14~~~~~~~12~~~~~~|
D#|---------------------------------------------------------------------|
A#|---------------------------------------------------------------------|
F |---------------------------------------------------------------------|
C |---------------------------------------------------------------------|
F |---------------------------------------------------------------------|

Guitar 2 (clean)
F |-----------------5---5---------------------------5---5---------|
C |-5---5---5---5-----------8---8---5---5---5---5---------8---8---|
G#|---8---8---8---8---8---8---8---8---8---8---8---8---8-----8---8-|
D#|---------------------------------------------------------------|
A#|---------------------------------------------------------------|
F |---------------------------------------------------------------|
C |---------------------------------------------------------------|
F |---------------------------------------------------------------|

Guitar 3
F |--------------------------------------------------------------------|
C |--------------------------------------------------------------------|
G#|--------------------------------------------------------------------|
D#|-10-9-9--9------7-9-10-----------10-9-9--9------7-9-10------13------|
A#|-10-9-9--9------7-9-10-----------10-9-9--9------7-9-10------13------|
F |-8--7-7--7------5-7-8------------8--7-7--7------5-7-8-------11------|
C |-8--7-7--7------5-7-8------------8--7-7--7------5-7-8-------11------|
F |-8--7-7--7------5-7-8------------8--7-7--7------5-7-8-------11------|

[Verse 2]
Guitar 1 (lines up with guitar 3)
F |----------------------------------------------------------------------------------------------------------|
C |----------------------------------------------------------------------------------------------------------|
G#|----------------------------------------------------------------------------------------------------------|
D#|-12-------------------------11----------------------------------------------------------------------------|
A#|-------------------------------------------------------12--------------------------13---------------------|
F |----------------------------------------------------------------------------------------------------------|
C |----------------------------------------------------------------------------------------------------------|
F |----10-10-10-10-10-10-10-10----10-10-10-10-10-10-10-10-----10-10-10-10-10-10-10-10----10-10-10-10-10-10-10|
P.m.    .  .  .  .  .  .  .  .     .  .  .  .  .  .  .  .      .  .  .  .  .  .  .  .     .  .  .  .  .  .  . 

Guitar 3
F |--------------------------------------------------------------------------|
C |--------------------------------------------------------------------------|
G#|--------------------------------------------------------------------------|
D#|-9-----------------8------------------------------------------------------|
A#|-------------------------------------9-----------------10-----------------|
F |--------------------------------------------------------------------------|
C |--------------------------------------------------------------------------|
F |---7-7-7-7-7-7-7-7---7-7-7-7-7-7-7-7---7-7-7-7-7-7-7-7----7-7-7-7-7-7-7-7-|
P.m.--. . . . . . . .   . . . . . . . .   . . . . . . . .    . . . . . . . . 

Guitar 1
F |-------------------------------------------------------------------------------------------------------|
C |-------------------------------------------------------------------------------------------------------|
G#|-------------------------------------------------------------------------------------------------------|
D#|-12-------------------------11-------------------------12-12-12-12-11h12p11----11----------------------|
A#|----------------------------------------------------------------------------13----13-13-13-13-12h13p12-|
F |-------------------------------------------------------------------------------------------------------|
C |-------------------------------------------------------------------------------------------------------|
F |----10-10-10-10-10-10-10-10----10-10-10-10-10-10-10-10-------------------------------------------------|
P.m.    .  .  .  .  .  .  .  .     .  .  .  .  .  .  .  .  .  .  .  .           .     .  .  .  . 

Guitar 3
F |---------------------------------------------------------------------|
C |---------------------------------------------------------------------|
G#|---------------------------------------------------------------------|
D#|-9-----------------8-----------------8-8-8-8-7h8p7---7---------------|
A#|---------------------------------------------------9---9-9-9-9-8h9p8-|
F |---------------------------------------------------------------------|
C |---------------------------------------------------------------------|
F |---7-7-7-7-7-7-7-7---7-7-7-7-7-7-7-7---------------------------------|
P.m.  . . . . . . . .   . . . . . . . . . . . .       .   . . . . 

F |-------------------------------------------------------|
C |-------------------------------------------------------|
G#|-------------------------------------------------------|
D#|-12-------------------------11-------------------------|
A#|-------------------------------------------------------|
F |-------------------------------------------------------|
C |-------------------------------------------------------|
F |----10-10-10-10-10-10-10-10----10-10-10-10-10-10-10-10-|
P.m.    .  .  .  .  .  .  .  .     .  .  .  .  .  .  .  . 

Guitar 3
F |-------------------------------------|
C |-------------------------------------|
G#|-------------------------------------|
D#|-9-----------------8-----------------|
A#|-------------------------------------|
F |-------------------------------------|
C |-------------------------------------|
F |---7-7-7-7-7-7-7-7---7-7-7-7-7-7-7-7-|
P.m.  . . . . . . . .   . . . . . . . . 

[Chorus](x2)
Guitar 1 (lines up with guitar 2)
F |--------------------------------------------------------------------------------------------------|
C |-12----------12-15-14-12-12----------11-12-11-----12----------12-15-14-12-12----------11-12-11----|
G#|----12-11-12----------------12-11-12----------12-----12-11-12----------------12-11-12----------12-|
D#|--------------------------------------------------------------------------------------------------|
A#|--------------------------------------------------------------------------------------------------|
F |--------------------------------------------------------------------------------------------------|
C |--------------------------------------------------------------------------------------------------|
F |--------------------------------------------------------------------------------------------------|

Guitar 2 (tremolo picked)
F |------------------------------------------------------------------|
C |------------------------------------------------------------------|
G#|-4-------4-7-6-4-4-------3-4-3----4-------4-7-6-4-4-------3-4-3---|
D#|---5-4-5-----------5-4-5-------5----5-4-5-----------5-4-5-------5-|
A#|------------------------------------------------------------------|
F |------------------------------------------------------------------|
C |------------------------------------------------------------------|
F |------------------------------------------------------------------|

Guitar 3 (first time through, play the low C, B, G# and G notes as tremolo picking, chords second time)
F |------------------------------------------------------------------|
C |------------------------------------------------------------------|
G#|------------------------------------------------------------------|
D#|-9-------------------------------8--------------------------------|
A#|-9-------------------------------8--------------------------------|
F |-7-------------------------------6--------------------------------|
C |-7-------------------------------6--------------------------------|
F |-7-------------------------------6--------------------------------|

Guitar 1 (lines up with guitar 2)
F |--------------------------------------------------------------------------------------------------|
C |-12----------12-15-14-12-12----------11-12-11-----12----------12-15-14-12-12----------11-12-11----|
G#|----12-11-12----------------12-11-12----------12-----12-11-12----------------12-11-12----------12-|
D#|--------------------------------------------------------------------------------------------------|
A#|--------------------------------------------------------------------------------------------------|
F |--------------------------------------------------------------------------------------------------|
C |--------------------------------------------------------------------------------------------------|
F |--------------------------------------------------------------------------------------------------|

Guitar 2 (tremolo picked)
F |------------------------------------------------------------------|
C |------------------------------------------------------------------|
G#|-4-------4-7-6-4-4-------3-4-3----4-------4-7-6-4-4-------3-4-3---|
D#|---5-4-5-----------5-4-5-------5----5-4-5-----------5-4-5-------5-|
A#|------------------------------------------------------------------|
F |------------------------------------------------------------------|
C |------------------------------------------------------------------|
F |------------------------------------------------------------------|

Guitar 3
F |------------------------------------------------------------------|
C |------------------------------------------------------------------|
G#|------------------------------------------------------------------|
D#|-5-------------------------------4--------------------------------|
A#|-5-------------------------------4--------------------------------|
F |-3-------------------------------2--------------------------------|
C |-3-------------------------------2--------------------------------|
F |-3-------------------------------2--------------------------------|

[Bridge](x2)
Guitar 1
F |---------------------------------------------------------|
C |-15--------------14----------12--------------11----------|
G#|---------------------------------------------------------|
D#|---------------------------------------------------------|
A#|---------------------------------------------------------|
F |---------------------------------------------------------|
C |---------------------------------------------------------|
F |---------------------------------------------------------|

Guitar 2 (Clean)
F |---------------------------------------------------------|
C |-----3---3---2-------0---2-0-----3---3---2-------0---2-0-|
G#|---4---4---4---4---3---3-------4---4---4---4---3---3-----|
D#|-5---------------4-----------5---------------4-----------|
A#|---------------------------------------------------------|
F |---------------------------------------------------------|
C |---------------------------------------------------------|
F |---------------------------------------------------------|

Guitar 3
F |--------------------------------------------------------|
C |--------------------------------------------------------|
G#|--------------------------------------------------------|
D#|-9---------------8-----------5---------------4----------|
A#|-9---------------8-----------5---------------4----------|
F |-7---------------6-----------3---------------2----------|
C |-7---------------6-----------3---------------2----------|
F |-7---------------6-----------3---------------2----------|

[Pre-Breakdown]
Guitar 1
F |---------------------------------------------------------|
C |-15--------------14----------12--------------11----------|
G#|---------------------------------------------------------|
D#|---------------------------------------------------------|
A#|---------------------------------------------------------|
F |---------------------------------------------------------|
C |---------------------------------------------------------|
F |---------------------------------------------------------|

Guitar 2 (Clean)
F |---------------------------------------------------------|
C |-----3---3---2-------0---2-0-----3---3---2-------0---2-0-|
G#|---4---4---4---4---3---3-------4---4---4---4---3---3-----|
D#|-5---------------4-----------5---------------4-----------|
A#|---------------------------------------------------------|
F |---------------------------------------------------------|
C |---------------------------------------------------------|
F |---------------------------------------------------------|

[Breakdown] (x4)
Guitar 1
F |---------------------------------------------------------|
C |-15--------------14----------12--------------11----------|
G#|---------------------------------------------------------|
D#|---------------------------------------------------------|
A#|---------------------------------------------------------|
F |---------------------------------------------------------|
C |---------------------------------------------------------|
F |---------------------------------------------------------|

Guitar 2 (Clean)
F |---------------------------------------------------------|
C |-----3---3---2-------0---2-0-----3---3---2-------0---2-0-|
G#|---4---4---4---4---3---3-------4---4---4---4---3---3-----|
D#|-5---------------4-----------5---------------4-----------|
A#|---------------------------------------------------------|
F |---------------------------------------------------------|
C |---------------------------------------------------------|
F |---------------------------------------------------------|

Guitar 3
F |-------------------------------------|
C |-------------------------------------|
G#|-------------------------------------|
D#|-------------------------------------|
A#|-------------------------------------|
F |-------------------------------------|
C |-0-0--0--0--0-0--------0-0-0-0-0-----|
F |-1-1--1--1--1-1--------1-1-1-1-1-----|
P.m.. .  .  .  . .        . . . . . 

[Outro](until fade out)
Guitar 1
F |---------------------------------------------------------|
C |-15--------------14----------12--------------11----------|
G#|---------------------------------------------------------|
D#|---------------------------------------------------------|
A#|---------------------------------------------------------|
F |---------------------------------------------------------|
C |---------------------------------------------------------|
F |---------------------------------------------------------|

Guitar 2 (Clean)
F |---------------------------------------------------------|
C |-----3---3---2-------0---2-0-----3---3---2-------0---2-0-|
G#|---4---4---4---4---3---3-------4---4---4---4---3---3-----|
D#|-5---------------4-----------5---------------4-----------|
A#|---------------------------------------------------------|
F |---------------------------------------------------------|
C |---------------------------------------------------------|
F |---------------------------------------------------------|

Guitar 3
F |--------------------------------------------------------|
C |--------------------------------------------------------|
G#|--------------------------------------------------------|
D#|-9---------------8-----------5---------------4----------|
A#|-9---------------8-----------5---------------4----------|
F |-7---------------6-----------3---------------2----------|
C |-7---------------6-----------3---------------2----------|
F |-7---------------6-----------3---------------2----------|


************************************

| ~  Vibrato
| .  Staccato
| h  Hammer-on
| p  Pull-off
| P.m.-Palm Mute

************************************

            
            
Suggest correction
Creating personal tab
Creating personal tab
You can edit any tab online and save it as your Personal.

You can edit, replace or remove any tab part or add personal notes – all changes will be seen only by you.

Personal tabs can be accessed anytime from any device, even offline.
Learn more »
Give kudos to tab author, rate the tab!
1 2 3 4 5
comments
print report bad tab
guest
You may want to rate the tab now too:
select rating
Wanna post a correction for this tab? Suggest correction