Oops, an error
Loading. Please wait.

Overseer tab

version 1
version 1

Whole song

  • Slight note changes and note count.

Interactive

346 views 1 this week
no commentswrite comment
1 2 3 4 5
3 more votes to show rating
add to favorites
×
Save as Personal and add changes to this tab that will be seen only by you. Learn more ›
×
You can save this tab as Personal to edit and correct it or add notes. All changes will be seen only by you. Learn more »
launch autoscroll
font size
0
reset
how to read this tab
guitar tuner
edit
Autoscroll
slow
fast
+/-
esc
set tempo
stop
About this tab version
Slight note changes and note count. Was this info helpful? Yes No
This a text only tab of the guitar pro tab on here of this song with a few corrections, mostly to the lead
guitar parts. I take no credit for this tab. The only reason I am doing it, is because not everyone has
Guitar pro, and I want to do and album tab for this incredible piece of art.

Tuning-Drop F (F C F A# D# G# C F)
Tempo-alternates between 260 and 130. 

[Intro]
(130bpm)

Guitar 1
F |---------------------------|
C |-17------------------------|
G#|-----16---17---19---17--16-|
D#|---------------------------|
A#|---------------------------|
F |---------------------------|
C |---------------------------|
F |---------------------------|

Guitars 2 & 3
F |------------------------------------------------|
C |------------------------------------------------|
G#|------------------------------------------------|
D#|------------------------------------------------|
A#|------------------------------------------------|
F |------------------------------------------------|
C |-0--0-0-0-0--0-0-0-0--0-0-0-0--0-0-0-0--0-0-0-0-|
F |-0--0-0-0-0--0-0-0-0--0-0-0-0--0-0-0-0--0-0-0-0-|

Guitars 2 & 3 (next intro piece)
F |------------------------------------------------|
C |------------------------------------------------|
G#|------------------------------------------------|
D#|------------------------------------------------|
A#|------------------------------------------------|
F |------------------------------------------------|
C |-0--0-0-0-0--0-0-0-0--0-0-0-0--0-0-0-0--0-0-0-0-|
F |-1--1-1-1-1--1-1-1-1--1-1-1-1--1-1-1-1--1-1-1-1-|


[Riff 1] 
(260bpm)

Guitar 1 (tremolo picked)
F |-------------------------------------|
C |---------13--------13--12-13---------|
G#|-9-----------9---------------8-------|
D#|-------------------------------------|(x2)
A#|-------------------------------------|
F |-------------------------------------|
C |-------------------------------------|
F |-------------------------------------|

F |------------------------------------
C |-12-------13--------13-12-13--------|
G#|--------------9--------------8------|
D#|------------------------------------|(x2)
A#|------------------------------------|
F |------------------------------------|
C |------------------------------------|
F |------------------------------------|

Guitars 2 & 3 (tremolo picked)
F |-------------------------------------|
C |-------------------------------------|
G#|-------------------------------------|
D#|-------------------------------------|(x2)
A#|-------------------------------------|
F |---------8----------8-7-8------------|
C |-5----------5-------------4-(x8)-----|
F |-------------------------------------|

F |------------------------------------|
C |------------------------------------|
G#|------------------------------------|
D#|------------------------------------|(x2)
A#|------------------------------------|
F |---------3----------3-2-3-----------|
C |-1----------1-------------0-(x8)----|
F |------------------------------------|


[Riff 2]
(260bpm)

Guitar 1 (tremolo picked)
F |-------------------------------------------------------------------------------------------------|
C |-15----------------------------------------------15----------------------------------------------|
G#|----14----------------------------------------------14-------------------------------------------|
D#|-------15-12-11-12-11-15-11-15-14-11-12-11-14-11-------15-12-11-12-11-15-11-15-14-11-12-11-------|
A#|-------------------------------------------------------------------------------------------13-12-|
F |-------------------------------------------------------------------------------------------------|
C |-------------------------------------------------------------------------------------------------|
F |-------------------------------------------------------------------------------------------------|

Guitars 2 & 3
F |------------------------------------------------------------------|
C |------------------------------------------------------------------|
G#|------------------------------------------------------------------|
D#|------------------------------------------------------------------|
A#|-5--------------------------------5-------------------------------|
F |---5--------------------------------5-----------------------------|
C |-----6-3-2-3-2-6-2-6-5-2-3-2-5-2------6-3-2-3-2-6-2-6-5-2-3-2-----|
F |--------------------------------------------------------------6-5-|

F |------|
G#|------|
D#|------|
A#|------|
F |-0----|
C |-0----|
F |-0----|


[Riff 3] 
(130bpm) (this is my correction and where it slightly differs from the GP)
(The tabber has this starting later in the segment and slightly wrong and it's on the clean channel)

Guitar 1         clean riff 1                    
F |---------0-----------------0-------|
C |-----0-----0---0-------0-----0---0-|
G#|---5---5-----5-------4---4-----4---|
D#|-7-----------------6---------------|
A#|-----------------------------------|
F |-----------------------------------|
C |-----------------------------------|
F |-----------------------------------|

Guitars 2 & 3                  guitar 3 then plays a Major Third harmony which sounds weird
F |-----------------------------|-------------------------------|
C |-----------------------------|-------------------------------|
G#|-----------------------------|-------------------------------|
D#|-----------------------------|-------------------------------|
A#|--------8-----------7--------|--------12-----------11--------|
F |-----------------------------|-------------------------------|
C |------5---5-------5--------6-|------9----9-------9---------6-|
F |-0--0--------0--0-----0--1---|-0--0---------0--0------0--1---|


Guitar 1            clean riff 2
F |-----------------0-0------------------------------0-0-------------|
C |---------0-0---------0-0-----0-0----------0-0---------0-0-----0-0-|
G#|-----5-5-----5-5---------5-5----------4-4-----4-4---------4-4-----|
D#|-7-7------------------------------6-6-----------------------------|
A#|------------------------------------------------------------------|
F |------------------------------------------------------------------|
C |------------------------------------------------------------------|
F |------------------------------------------------------------------|

Guitars 2 & 3    dist riff 2
F |------------------------------------------------|
C |------------------------------------------------|
G#|------------------------------------------------|
D#|------------------------------------------------|
A#|------------------------------------------------|
F |------------------------------------------------|
C |-0--0-0-0-0--0-0-0-0--0-0-0-0--0-0-0-0--0-0-0-0-|
F |-0--0-0-0-0--0-0-0-0--0-0-0-0--0-0-0-0--0-0-0-0-|


[Riff 4]
Guitar 1 (light distortion, then full kicks in)
             (this first bit repeats x2)                                          (gradual 1/2 step bend on 7)
F |-------------------------13-13-13-13-12-13-------------------8---------7-8-7-7---------------7-7-7-7-7-7-7-
C |-10-10-10-10-10-10-10-10-------------------9-9-6-6-6-6-6-6-6---6-6-6-6---------5-5-5-5-5-5-5---------------
G#|-----------------------------------------------------------------------------------------------------------
D#|-----------------------------------------------------------------------------------------------------------
A#|-----------------------------------------------------------------------------------------------------------
F |-----------------------------------------------------------------------------------------------------------
C |-----------------------------------------------------------------------------------------------------------
F |-----------------------------------------------------------------------------------------------------------

Guitars 2 & 3
F |-------------------------------|
C |-------------------------------|
G#|-------------------------------|
D#|-------------------------------|
A#|-------------------------------|
F |-5-------7-------8------8------|
C |---(x32)---(x16)---(x8)---(x8)-|
F |-5-------7-------7------8------|


[Breakdown]
Guitar 1
F |-------12----13----12----------12----15----12----------13----17----13---------13----17---13----|
C |----15----15----15----15----15----15----15----15----17----17----17----17----17---17---17----17-|
G#|-14----------------------14----------------------15----------------------15--------------------|
D#|-----------------------------------------------------------------------------------------------|
A#|-----------------------------------------------------------------------------------------------|
F |-----------------------------------------------------------------------------------------------|
C |-----------------------------------------------------------------------------------------------|
F |-----------------------------------------------------------------------------------------------|


Guitars 2 & 3
F |-----------------------------------------|
C |-----------------------------------------|
G#|-----------------------------------------|
D#|-----------------------------------------|
A#|-----------------------------------------|
F |-----------------------------------------|
C |-0-0----0-0------------------------------|
F |-1-1----1-1------3b---1b---1b------1b----|


Riff Legend:

Intro (Guitar 1 x8) (guitars 2 & 3 riff 1 x4 riff 2 x4)
Riff 1 (x2)
Riff 2 (x2)
Riff 3 (clean riff 1 (x4) clean riff 2 (x4)(guitars 2 & 3 x8 (harmony comes in on x5-x8)(riff 2 x4)
Riff 4 (x3)
Breakdown (repeat until song ends)(guitar 1 does continue past the riffs at the end with an effect)


************************************

| b-bend (half steps)

************************************

            
            
Suggest correction
Creating personal tab
Creating personal tab
You can edit any tab online and save it as your Personal.

You can edit, replace or remove any tab part or add personal notes – all changes will be seen only by you.

Personal tabs can be accessed anytime from any device, even offline.
Learn more »
Give kudos to tab author, rate the tab!
1 2 3 4 5
comments
print report bad tab
guest
You may want to rate the tab now too:
select rating
Wanna post a correction for this tab? Suggest correction