Oops, an error
Loading. Please wait.

The Glass Sentient Tab

46 views 12 this week
no commentswrite comment
1 2 3 4 5
3 more votes to show rating
add to favorites
launch autoscroll
font size
0
reset
how to read this tab
guitar tuner
Autoscroll
slow
fast
+/-
esc
set tempo
stop
Help us to improve Ultimate-Guitar.com Take our survey!
×
Author
Difficulty
Tuning
advanced
C F A# D# G C
This is what I gather to be the tabs for Aversions Crown's song The Glass Sentient from
their album Tyrant.
Hopefully this tab is somewhat correct. Enjoy (hopefully)

Also note, that most of the singular notes i.e not chords (all except from Riff A, F, G and H) are tremolo 
picked at 16th notes except riff D which is 8th notes.

Tempo-280bpm

Tuning: Drop F (F C F A# D# G# C F) (Half step up from Drop E, obviously haha)

Intro part (the part before the whole song kicks in)
                                                                          
Riff A
F |-------------------------------------------------------------------------------------|
C |-------------------------------------------------------------------------------------|
G#|-------------------------------------------------------------------------------------|
D#|-----------------------------------------------------------------------------10-9-6-7|
A#|---------------------------------------8---------------------------------------------|
F |-5----------------------5---------------------5--------------------5-----------------|
C |-----------6p5-------------------6----------------------6p5--------------------------|
F |---5-5-5-5-----5-5-5-5---5-5-5-5---5-5---5-5----5-5-5-5-----5-5-5-5--5-5-5-5---------|
      * * * *     * * * *   * * * *   * *   * *    * * * *     * * * *  * * * *

This is the lead guitar part that plays when the song kicks in. It is only played on top
of the above riff
but not all the time if that makes any sense. Its tremolo picked

Riff B
F |-------------------------------------------------------------------------------------------------|
C |-------------------------------------------------------------------------------------------------|
G#|-14-16-14-17-14-16-14-13-14-13-16-13-14-13-16-13-14-16-14-17-14-16-14-13-14-13-16-13-14-13-16-13-|
D#|-------------------------------------------------------------------------------------------------|
A#|-------------------------------------------------------------------------------------------------|
F |-------------------------------------------------------------------------------------------------|
C |-------------------------------------------------------------------------------------------------|
F |-------------------------------------------------------------------------------------------------|

also tremolo picked. Replaces the above riff while riff A is playing

Riff C
F |----------------------|
C |----------------------|
G#|----------13----------|
D#|-15-14-15----15-14-15-|
A#|----------------------|
F |----------------------|
C |----------------------|
F |----------------------|

Riff D
Tremolo pick the singular notes
F |---------|-------------------------------------------------------------------------|
C |---------|-------------------------------------------------------------------------|
G#|---------|-------------------------------------------------------------------------|
D#|-12--12--|-------------------------------------------------------------------------|
A#|---------|-------------------------------------------------------------------------|
F |-10--10--|--8/7---------7--8-7-8-11-12-11-8-7--------8/7---------7-----------------|
C |---------|---------------------------------------------------------------12----13--|
F |---------|--8-7-0-0-0-0-7----------------------------8-7-0-0-0-0-7-----8----10-----|
                   * * * *                                  * * * *

Riff E

tremolo picked except the opens
                             this is the harmony to the before part
F |------------------------------------|---------------------------------------|
C |------------------------------------|--------15----------------15-----------|
G#|------------------------------------|----------14----------------14---------|
D#|------------------------------------|------------15----------------15-14----|
A#|--------5-----------------5---------|---------------------------------------|
F |---------5-----------------5--------|---------------------------------------|
C |-0-0-0-0--6-------0-0-0-0---6-----5----------|-0-0-0-0--------------0-0-0-0-|
F |-0-0-0-0----------0-0-0-0-----------|-0-0-0-0--------------0-0-0-0----------|
    * * * *          * * * *             * * * *              * * * *

                                                  
    Riff F                                                   Riff G
F |-------------------------|--------------------------|------------------|
C |-------------------------|--------------------------|------------------|
G#|-----9---10---9-------7--|-----9---10---9-------7---|------------------|
D#|-7----------------8------|-7----------------8-------|------------------|
A#|-------------------------|--------------------------|-7----5----5/8----|
F |-------------------------|--------------------------|------------------|
C |-------------------------|--------------------------|------------------|
F |-------------------------|--------------------------|------------------|


Riff H

F |---------------------------------------------------------------------------|
C |---------------------------------------------------------------------------|
G#|---------------------------------------------------------------------------|
D#|---------------------------------------------------------------------------|
A#|---------------------------------------------------------------------------|
F |---------------------------------------------------------------------------|
C |----------------6-------------6-------6----------------6-------------6-----|
F |-0----0----0-0----0----0----0---0--0----0----0----0-0----0----0----0---0-0-|

Riff Order

A&B x1
A&C x1
D x4
A x1
A&C x1
E x4
A&B x1
A&C x1
D x4
F x1
F&G x3
H x2 (G is played quietly in background)
H&G x2  (the duration of the opens in H differs from when it is first played. Some is staccato, some not)
Suggest correction
Give kudos to tab author, rate the tab!
1 2 3 4 5
comments
print report bad tab
guest
You may want to rate the tab now too:
select rating
Wanna post a correction for this tab? Suggest correction