Oops, an error
Loading. Please wait.

Truth Sets In Tab

version 1
version 1

Whole song

Interactive

5,564 views 1 this week
4 commentsread comments
1 2 3 4 5
please rate
add to favorites
launch autoscroll
font size
0
reset
how to read this tab
guitar tuner
Autoscroll
slow
fast
+/-
esc
set tempo
stop
Help us to improve Ultimate-Guitar.com Take our survey!
×
Author
Artist: Avi Buffalo
Song: Truth Sets In
Site: http://avibuffalomusic.com/

email me if you have any suggestions
tsos.josue@gmail.com

Intro Chords:
G D

Background guitar plays harmonics

------------------------------7*---------|
-12*-------5*----12*-------7*----7*------|
----12*------5*-----12*------------------|
-------12*-------------12*---------------|
-----------------------------------------|
-----------------------------------------|

other guitar at 0:25

--12--10--8---10-------15--14--12--8---10-------|
--10--10--10--10--x2---15--15--15--10--10---x2--|
------------------------------------------------|
------------------------------------------------|
------------------------------------------------|
------------------------------------------------|

0:32
                   x2  | 1st Ending  |   2nd Ending
-----------------------|-------------|------------------------|
-----------------------|-------------|---------10-10-10-10-8--|
--6---7-6-7-6-4---9-6--|-9-6-4-6-4---|-6-7-9------------------|
-----------------------|-------------|------------------------|
-----------------------|-------------|------------------------|
-----------------------|-------------|------------------------|

Verse Chords:
Strum Pattern: xx xxx xxx xxx
                                                      x3
--10------|--5------|--5-5--5-5-5--5-5-5--5-5-4-3-3-|-3-3-3------------|
--12------|--5------|--7-7--7-7-7--7-7-7--7-7-6-5-5-|-5-5-5------------|
--12------|--5------|--7-7--7-7-7--7-7-7--7-7-6-5-5-|-5-5-5------------|
--12--x11-|--7--x11-|--7-7--7-7-7--7-7-7--7-7-6-5-5-|-5-5-5------------|
--10------|--7------|--5-5--5-5-5--5-5-5--5-5-4-3-3-|-3-3-3------------|
--10------|--5------|--5-5--5-5-5--5-5-5--5-5-4-3-3-|-3-3-3------------|
Suggest correction
Give kudos to tab author, rate the tab!
1 2 3 4 5
comments
print report bad tab
4 comments total. Showing first comments.
+1 reply
sanks1 10 wrote on July 9 2010, 06:15 pm

The intro goes like this:

---------------------------------------|
-12*-------------12*---------5*-7*-----|
----12*-------5*----12*----5*----------|
-------12*--7*---------12*-------------|
---------------------------------------|
---------------------------------------|

And the chord progression for the verse is G D C Bm F C*
*last time going into the chorus

+1 reply
deanna_dynamite 37 wrote on August 24 2010, 04:56 pm

Cheers :D I love you right now :')

0 reply
BlackShoees 10 wrote on February 2 2011, 08:24 pm

VERY GOOD! for mi this part is

-12--10--7---10-------15--14--12--14--10-------|
--12--12--12--12--x2---15--15--15--15--12---x2--|
------------------------------------------------|
------------------------------------------------|
------------------------------------------------|
------------------------------------------------|

guest
You may want to rate the tab now too:
select rating
Please do not post tabs as comments. Select "correction" instead!