Oops, an error
Loading. Please wait.

I Could Be The One Tab

version 2
version 2

Whole song

9,327 views 1 this week
1 commentread comment
1 2 3 4 5
please rate
add to favorites
launch autoscroll
font size
0
reset
how to read this tab
guitar tuner
Autoscroll
slow
fast
+/-
esc
set tempo
stop
Help us to improve Ultimate-Guitar.com Take our survey!
×
I Could Be The One - Avicii (Main Riff)
-------------------------------------------------------------------------------
Tabbed by: EpicGuitarGuy13


Tuning: Standard

This is my first tab published on here, tabbed it by ear, but sounds good
when you play it along with the track. Listen to the song for rhythm and wear
I've said vibrato, I only put that in to make it more interesting to play.
Once I've worked out the rest I'l publish it. Enjoy !

Intro: (Full Riff)                              (Easier to play because its very fast)
e|--------------------------------------------||-----------------------------|
B|-17--14---------17--14---------14-----------||-17-14----17-14----14--------|
G|---14--14-16-14---14--14-16-14----14h16-----||-------16-------16----14h16--|
D|--------------------------------------------||-----------------------------|
A|--------------------------------------------||-----------------------------|
E|--------------------------------------------||-----------------------------|

Main Riff
e|--------------------------|--------------------------|---------------------|
B|------15-14-------12------|--------------------------|------15-14-------12-|
G|-14--------14--14~--14-13-|-11--14-13-----11~-----14-|-14--------14--14~---|
D|---16--------16-----------|---11-----14-11---14-16---|---16--------16------|
A|--------------------------|--------------------------|---------------------|
E|--------------------------|--------------------------|---------------------|

e|-------|---------------------------|---------------------------------------|
B|-------|---------------------------|---------------------------------------|
G|-14-13-|-11--14-13-----11~-12------|---------------------------------------|
D|-------|---11-----14-11------14-13-|---------------------------------------|
A|-------|---------------------------|---------------------------------------|
E|-------|-------------------------------------------------------------------|



************************************

| /   slide up
| \   slide down
| h   hammer-on
| p   pull-off
| ~   vibrato
| +   harmonic
| x   Mute note
| b   Bend
| pb  Pre-bend
| br  Bend release
| pbr Pre-bend release
| brb Bend release bend
************************************
Suggest correction
Give kudos to tab author, rate the tab!
1 2 3 4 5
comments
print report bad tab
1 comment total.
0 reply
SupaDrumma 10 wrote on March 22 2013, 08:20 pm

Awesome Tab! So cool...

guest
You may want to rate the tab now too:
select rating
Wanna post a correction for this tab? Suggest correction