Oops, an error
Loading. Please wait.

Levels Bass

version 1
version 1

Whole song

Interactive

by Avicii
4,054 views 3 this week
5 commentsread comments
1 2 3 4 5
x 8
add to favorites
launch autoscroll
font size
0
reset
guitar tuner
Autoscroll
slow
fast
+/-
esc
set tempo
stop
Author
So i found this Avicii Levels tab, but it sounded wrong in the end, so i just fixed it 
by putting the 2-2-0-0 on the D string, instead of the 6-6-4-4 on the A string
Standard tuning (EADG)
Enjoy!

-9-7---------------------------|
-----9-7-5-5--5-5-5-5-4-4-5-5--|
-------------------------------|
-------------------------------|
-------------------------------|

-9-7---------------------------|
-----9-7-5-5--5-5-5-5-2-2-0-0--|
-------------------------------|
-------------------------------|
-------------------------------|
Suggest correction
comments
print report bad tab
5 comments total. Showing first comments.
0 reply
MathiasVinter 51 Mar 06, 2013 11:11 AM

-9-7---------------------------|
-----9-7-5-5--5-5-5-5-4-4-5-5--|
-------------------------------|
-------------------------------|

-9-7---------------------------|
-----9-7-5-5--5-5-5-5-2-2-0-0--|
-------------------------------|
-------------------------------|

0 reply
SupaDrumma 10 Apr 07, 2013 06:13 AM

What's with the 5th string bass??

0 reply
benbop9 10 Nov 02, 2013 03:55 PM

is the top string E ?

guest
You may want to rate the tab now too:
select rating
Wanna post a correction for this tab? Suggest correction