Oops, an error
Loading. Please wait.

Levels Tab

version 1
version 1
134,661 views 66 this week
2 commentsread comments
1 2 3 4 5
x 13
add to favorites
launch autoscroll
font size
0
reset
how to read this tab
guitar tuner
Autoscroll
slow
fast
+/-
esc
set tempo
stop
Help us to improve Ultimate-Guitar.com Take our survey!
×
Author
e|-------------------------9p7---|
B|-7-5-5--5-5-5-5-4-4-5-5-----9--|
G|-------------------------------|
D|-------------------------------|
A|-4------7----------------------|
E|----------------7---5----------|

e|-------------------------9p7---|
B|-7-5-5--5-5-5-5-------------9--|
G|----------------6-6-4-4--------|
D|-------------------------------|
A|-4------7----------------------|
E|----------------7---5----------|


************************************

| p  Pull-off

************************************
Suggest correction
comments
print report bad tab
2 comments total.
0 reply
RookieUkePlayer 81 Jun 19, 2012 01:48 PM

Perfect tab

0 reply
AlterCreed95 128 May 22, 2016 10:13 AM

I think it's easier (at least for me) to play this way:
|-2-0-0--0-0-0-0-----0-0--9p7---|
|----------------4-4---------9--|
|-------------------------------|
|--------2----------------------|
|-4--------------2---0----------|
|-------------------------------|

|-2-0-0--0-0-0-0----------9p7---|
|----------------------------9--|
|----------------6-6-4-4--------|
|--------2----------------------|
|-4-----------------------------|
|----------------7---5----------|

guest
You may want to rate the tab now too:
select rating
Wanna post a correction for this tab? Suggest correction