Oops, an error
Loading. Please wait.

Levels Tab

version 6
version 6
12,276 views 18 this week
no commentswrite comment
1 2 3 4 5
please rate
add to favorites
launch autoscroll
font size
0
reset
how to read this tab
guitar tuner
Tab Pro tools
  • play this tab
  • loop segment
  • change instrument
  • show fretboard
  • metronome
×
Best way to learn
"Levels"
Autoscroll
slow
fast
+/-
esc
set tempo
stop
Contributor
Difficulty
novice
================================
|         Main Refrain         | 
================================

|-9-7---------------------------|
|-----9-7-----------------------|
|---------9-9--9-9-9-9-8-8-9-9--|
|-------------------------------|
|-------------------------------|
|-------------------------------|

|===============================|

|-9-7---------------------------|
|-----9-7-----------------------|
|---------9-9--9-9-9-9-8-8-9-9--|
|-------------------------------|
|-------------------------------|
|-------------------------------|


This is the main refrain, basically
the part you're probably looking for.
You play this through almost the whole
song.


================================
|          Chords              |
================================

 (Em)   (G)    (D)    (A)
|-0-0----3-3----2-2----0-0------|
|-0-0----0-0----3-3----2-2------|
|-0-0----0-0----2-2----2-2------|
|-2-2----0-0----0-0----2-2------|
|-2-2----2-2----0-0----0-0------|
|-0-0----3-3----0-0----0-0------|


This is the background tune you hear
in the song. At the singing solo,
you can play this.


- Tab written by Dominik Penner.
- Contact me @ just_another_glory_boy@hotmail.com
comments
We did not receive enough feedback on this tab! Please rate:
print report bad tab
1 2 3 4 5
I want to post or [tab]
guest
You may want to rate the tab now too:
select rating
Please do not post tabs as comments. Select "correction" instead!