Oops, an error
Loading. Please wait.

Taste The Feeling chords

by Avicii
19,102 views 132 this week
1 commentread comment
1 2 3 4 5
x 13
add to favorites
×
Save as Personal and add changes to this tab that will be seen only by you. Learn more ›
×
You can save this tab as Personal to edit and correct it or add notes. All changes will be seen only by you. Learn more »
launch autoscroll
font size
0
reset
transpose
0
reset
display chords
guitar tuner
edit
Autoscroll
slow
fast
+/-
esc
set tempo
stop
Strumming
There is no strumming pattern for this song yet. and get +5 IQ
   D#m    C#    B     A#m    F# 

e|--6-----4-----2-----6-----2------------------|
B|--7-----6-----4-----6-----2------------------|
G|--8-----6-----4-----6-----3------------------|
D|--8-----6-----4-----8-----4------------------|
A|--6-----4-----2-----8-----4------------------|
E|--6-----4-----2-----6-----2------------------| 

You DON`T NEED to play "A#m", but i think it sounds cooler


[Intro]

D#m


[Verse]

      C#          B
Feels good, in my heart, in my soul, 
            A#m                  D#m
When you're right here beside me
              C#               B   A#m  D#m 
I don't ever want this day to end
        C#            B
Mmmm we can watch the waves, have a Coke
        A#m                D#m
And you sit here beside me
               C#       B         A#m  D#m
Take a little long my heart again
            B                C#
So we can feel whatever you feel
            D#m
Together be real, together and...


[Chorus]

           F#      C#               D#m
No one can stop me when I taste the feeling
                   F#       C#     B
Nothing could ever bring me doooooown
           F#      C#               D#m
No one can stop me when I taste the feeling
                   F#       C#      B
Nothing could ever bring me doooooown


You make it easier to sing, yeah

e|----------------------------------------|
B|---------7-------9-----11-9-11-9---7----|
G|-8---6-8-----6-8-----8-----------8---8--|
D|----------------------------------------|
A|----------------------------------------|
E|----------------------------------------|

e|----------------------------------------|
B|---------7-------9-----11-9-11-9---7----|
G|-----6-8-----6-8-----8-----------8---8--|
D|----------------------------------------|
A|----------------------------------------|
E|----------------------------------------| 

You make it easier to sing, yeah


[Verse]

D#m
           C#         B
Mmmm feels good as we stand on the shore
                    A#m     D#m
And our hearts are jumping
             C#             B      A#m  D#m 
Grab another Coke and let's dive in
         C#             B
Oh, my love, there's a song in my soul
              B
When you are around me
             C#        B        A#m D#m
You make it easier to sing, yeah
          B                 C#
So we can feel whatever you feel
            D#m
Together be real, together and...


[Chorus]

           F#      C#               D#m
No one can stop me when I taste the feeling
                   F#       C#     B
Nothing could ever bring me doooooown
           F#      C#               D#m
No one can stop me when I taste the feeling
                   F#       C#      B
Nothing could ever bring me doooooown


[Bridge]

B
With every fading sunset
F#
We see the stars align
B                          D#m
We make the simple moments last for a lifetime
B
So, we`ll feel forever
F#
You and me, together
B
We can sing forever
D#m
And be real together.


[Chorus]

           F#      C#               D#m
No one can stop me when I taste the feeling
                   F#       C#     B
Nothing could ever bring me doooooown
           F#      C#               D#m
No one can stop me when I taste the feeling
                   F#       C#      B
Nothing could ever bring me doooooown


You make it easier to sing, yeah

e|----------------------------------------|
B|---------7-------9-----11-9-11-9---7----|
G|-8---6-8-----6-8-----8-----------8---8--|
D|----------------------------------------|
A|----------------------------------------|
E|----------------------------------------|

e|----------------------------------------|
B|---------7-------9-----11-9-11-9---7----|
G|-----6-8-----6-8-----8-----------8---8--|
D|----------------------------------------|
A|----------------------------------------|
E|----------------------------------------| 

You make it easier to sing, yeah

e|----------------------------------------|
B|---------7-------9-----11-9-11-9---7----|
G|-8---6-8-----6-8-----8-----------8---8--|
D|----------------------------------------|
A|----------------------------------------|
E|----------------------------------------|

e|----------------------------------------|
B|---------7-------9-----11-9-11-9---7----|
G|-----6-8-----6-8-----8-----------8---8--|
D|----------------------------------------|
A|----------------------------------------|
E|----------------------------------------| 

            
            
Suggest correction
Creating personal tab
Creating personal tab
You can edit any tab online and save it as your Personal.

You can edit, replace or remove any tab part or add personal notes – all changes will be seen only by you.

Personal tabs can be accessed anytime from any device, even offline.
Learn more »
comments
print report bad tab
1 comment total.
0 reply
superjack951 10 May 10, 2017 05:44 AM

Have a coke!

guest
You may want to rate the tab now too:
select rating
Wanna post a correction for this tab? Suggest correction