Oops, an error
Loading. Please wait.

Waiting For Love solo tab

version 1
version 1

Solo

  • It's meant-to-be-played-without-moving-your-hand-o... Show more

Whole song

Interactive

by Avicii
15,615 views 81 this week
4 commentsread comments
1 2 3 4 5
x 6
add to favorites
×
Save as Personal and add changes to this tab that will be seen only by you. Learn more ›
×
You can save this tab as Personal to edit and correct it or add notes. All changes will be seen only by you. Learn more »
launch autoscroll
font size
0
reset
how to read this tab
guitar tuner
edit
Autoscroll
slow
fast
+/-
esc
set tempo
stop
Author
Difficulty
-------------------------------------------------------------------------------
                             Waiting for love - Avicii
-------------------------------------------------------------------------------
Tabbed by:moritzweitzel
E-mail: moritzweitzel@gmail.com

Tuning:Standard
Tabbed the solo an octave lower, as was having trouble playing the other versions with a classical guitar due
to the very high notes. This should help if you were having the same problems.
The melody repeats a few times in the solo. Also make sure to play the pull-off parts quickly to make it sound
more like the song. It's my first tab so it's probably not perfect but I think it's quite accurate.


[Solo]

e|------------------0-2--2-0--0----------0-2--2-4--5-------------------------|
B|----------------2-------------2p0----2--------------2p0----2---0-----------|
G|-------------2--------------------2---------------------2----2-------------|
D|-4--2-4--2-4------------------------------------------------------2-4--2-4-|
A|---------------------------------------------------------------------------|
E|---------------------------------------------------------------------------|

e|---------------------------------------------------------------------------|
B|----------2----------------------------------------------------------------|
G|-2----2-4------------------------------------------------------------------|
D|----4----------------------------------------------------------------------|
A|---------------------------------------------------------------------------|
E|---------------------------------------------------------------------------|



************************************

| p  Pull-off

************************************

            
            
Suggest correction
Creating personal tab
Creating personal tab
You can edit any tab online and save it as your Personal.

You can edit, replace or remove any tab part or add personal notes – all changes will be seen only by you.

Personal tabs can be accessed anytime from any device, even offline.
Learn more »
comments
print report bad tab
4 comments total. Showing first comments. show 1 bad comment
0 reply
moritzweitzel 34 Jul 28, 2015 03:07 AM

What about it isn't accurate? Also it is complete, as Avicii just repeats this melody throughout the solo, however he uses different sounds yet still the same melody.

-2 reply
gbaxter333 10 Nov 24, 2015 06:17 AM

didn't like this contribution

guest
You may want to rate the tab now too:
select rating
Wanna post a correction for this tab? Suggest correction