Oops, an error
Loading. Please wait.

Wake Me Up Id Tab

51,120 views 3 this week
3 commentsread comments
1 2 3 4 5
accurate
x 7
add to favorites
launch autoscroll
font size
0
reset
how to read this tab
guitar tuner
Autoscroll
slow
fast
+/-
esc
set tempo
stop
Help us to improve Ultimate-Guitar.com Take our survey!
×
Difficulty
intermediate
-------------------------------------------------------------------------------
                 Wake Me Up (ID) - Avicii ft. Aloe Blacc
-------------------------------------------------------------------------------
Tabbed by: Mitchell W

Tuning: Standard (Key of B)

Standard Chords: B G D D
Though sometimes it has a bit on the end played as:
                 B G D D/A

GUITAR MELODY:

e|-------------------------------------------------------|
B|-------------------------------------------------------|
G|------------7------------7---7---7-9-7-9-7--9b11-7-----|
D|-9---9--7-9---9----7h9p7-------------------------------|
A|-------------------------------------------------------|
E|-------------------------------------------------------|

************************************
| b   Bend
| h   Hammer
Suggest correction
comments
print report bad tab
3 comments total.
+3 reply
kbell75 10 wrote on July 25 2013, 06:06 pm

just a minor difference, but I prefer to play it this way, picked clean rather than bent:
|
V
e|-------------------------------------------------------|
B|--------------------------------------------7----------|
G|------------7------------7---7---7-9-7-9-7-----7-------|
D|-9---9--7-9---9----7h9p7-------------------------------|
A|-------------------------------------------------------|
E|-------------------------------------------------------|

0 reply
andyk979 10 wrote on August 2 2013, 11:21 am

This is an octave too low, and it's in the key of D, not B. The tab is like this:


e|----------------10----------------10--10--10-12-10-12-12/14-10--|
B|-12---12--10-12----12----10h12p10-------------------------------|
G|----------------------------------------------------------------|
D|----------------------------------------------------------------|
A|----------------------------------------------------------------|
E|----------------------------------------------------------------|

0 reply
MariaCarter 10 wrote on November 4 2013, 09:43 pm

@kbell75, it's the same chord progressoin for yours, right?

guest
You may want to rate the tab now too:
select rating
Please do not post tabs as comments. Select "correction" instead!