Oops, an error
Loading. Please wait.
We have an official Wake Me Up tab made by UG professional guitarists. Check out the tab »
×
by Avicii
54,448 views 57 this week
3 commentsread comments
1 2 3 4 5
x 30
add to favorites
×
Save as Personal and add changes to this tab that will be seen only by you. Learn more ›
×
You can save this tab as Personal to edit and correct it or add notes. All changes will be seen only by you. Learn more »
launch autoscroll
font size
0
reset
how to read this tab
guitar tuner
edit
Autoscroll
slow
fast
+/-
esc
set tempo
stop
Here's 3 different ways to play the solo.  I think the first one is the 
easiest and sounds the best but the other 2 still sound good (and you don't 
need a capo).


[Solo] (x12)

Capo 2.

e|--------------------------------------0------------|
B|-----------1-----------1--1--1h3p1h3-----1---------|
G|-2--2--0h2---2---0--2------------------------------|
D|---------------------------------------------------|
A|---------------------------------------------------|
E|---------------------------------------------------|

or (no capo)

e|---------------------------------------------------|
B|-----------3-----------3--3--3h5p3h5--7--3---------|
G|-4--4--2h4---4---2--4------------------------------|
D|---------------------------------------------------|
A|---------------------------------------------------|
E|---------------------------------------------------|

or (no capo)

e|-------------------------------------------------------------|
B|---------------10-------------10—10—10h12p10h12--14—10-------|
G|-12--12--10h12----12--10--12---------------------------------|
D|-------------------------------------------------------------|
A|-------------------------------------------------------------|
E|-------------------------------------------------------------|


************************************

| h  Hammer-on
| p  Pull-off

************************************

            
            
Suggest correction
Creating personal tab
Creating personal tab
You can edit any tab online and save it as your Personal.

You can edit, replace or remove any tab part or add personal notes – all changes will be seen only by you.

Personal tabs can be accessed anytime from any device, even offline.
Learn more »
comments
print report bad tab
3 comments total.
+1 reply
nelui 10 Dec 01, 2013 05:54 AM

they are good, but the third one (second no capo tab) has to be one string higher.. not on the g but on the b :)
nevertheless great!

+2 reply
yberf 10 Dec 30, 2013 08:50 AM, edited on March 29 2014, 11:59 am

it sounds better like this:no capo

0 reply
StampyStarkid 11 Apr 25, 2015 01:20 AM

That first one is awesome!

guest
Wanna post a correction for this tab? Suggest correction