Oops, an error
Loading. Please wait.

Without You chords

by Avicii
24,976 views 6,393 this week
15 commentsread comments
1 2 3 4 5
x 38
add to favorites
×
Save as Personal and add changes to this tab that will be seen only by you. Learn more ›
×
You can save this tab as Personal to edit and correct it or add notes. All changes will be seen only by you. Learn more »
launch autoscroll
font size
0
reset
transpose
0
reset
display chords
guitar tuner
edit
Autoscroll
slow
fast
+/-
esc
set tempo
stop
Strumming Is this strumming pattern correct? Yes No
Verse 1 134 bpm
1
&
2
&
3
&
4
&
5
&
6
&
7
&
8
&
Listen
[Intro]

e|-----0--2-----2--3--3--2----------------0--2-------------------------------|
B|--3--------3-------------------------3--------3--3--2--2--3----------------|
G|---------------------------------------------------------------------------|
D|---------------------------------------------------------------------------|
A|---------------------------------------------------------------------------|
E|---------------------------------------------------------------------------|

e|-----0--2-----2--3--5---2--2------------0--2-------------------------------|
B|--3--------3-------------------------3--------3--3--2--2--3----------------|
G|---------------------------------------------------------------------------|
D|---------------------------------------------------------------------------|
A|---------------------------------------------------------------------------|
E|---------------------------------------------------------------------------|

[Verse 1]
D                       G     D
You said that we would always be
D                   A       D
Without you I feel lost at sea
D                           G        D
Through the darkness you'd hide with me
Bm                     A        D
Like the wind we'd be wild and free

[Pre-chorus]
Bm A D                        G  D  A
 You,   said you'd follow me anywhere
         Bm A D              G    D   A
But your eyes,  tell me you won't be there

[Chorus]
         G            A     Bm
I gotta learn how to love without you
         D        A      G
I gotta carry my cross without you
              G              A     Bm
Stuck in the middle and I'm just about to
D          A     G
Figure it out without you
         G            A      Bm
And I'm done sittin' home without you
D                A    G
Fuck, I'm goin' out without you
              G              A     Bm
I'm going to tear this city down without you
            D          A       G
I'm going Bonnie and Clyde without you

G A Bm
D F#m G x2

[Verse 2]
D                G        D
Now I'm running away, my dear
Bm                   A       D
From myself and the truth I fear
D                       G         D
My heart is beatin', I can't see clear
Bm                    A        D
How I'm wishing that you were here

[Pre-chorus]
Bm A D                        G  D  A
 You,   said you'd follow me anywhere
         Bm A D              G    D   A
But your eyes,  tell me you won't be there

[Chorus]
         G            A     Bm
I gotta learn how to love without you
         D        A      G
I gotta carry my cross without you
              G              A     Bm
Stuck in the middle and I'm just about to
D          A     G
Figure it out without you
         G            A      Bm
And I'm done sittin' home without you
D                A    G
Fuck, I'm goin' out without you
              G              A     Bm
I'm going to tear this city down without you
            D          A       G
I'm going Bonnie and Clyde without you

G A Bm
D F#m G x3

            
            
Suggest correction
Creating personal tab
Creating personal tab
You can edit any tab online and save it as your Personal.

You can edit, replace or remove any tab part or add personal notes – all changes will be seen only by you.

Personal tabs can be accessed anytime from any device, even offline.
Learn more »
comments
print report bad tab
15 comments total. Showing first comments.
+4 reply
sindre908 10 Aug 12, 2017 06:27 PM

Just did some changes on the intro, to make it more easy to play
e|-----0--2-----2--3--3--2----------------0--2-------------------------------|
B|--3--------3-------------------------3--------3--3--2--2--3----------------|
G|---------------------------------------------------------------------------|
D|---------------------------------------------------------------------------|
A|---------------------------------------------------------------------------|
E|---------------------------------------------------------------------------|

e|-----0--2-----2--3--5---2--2------------0--2-------------------------------|
B|--3--------3-------------------------3--------3--3--2--2--3----------------|
G|---------------------------------------------------------------------------|
D|---------------------------------------------------------------------------|
A|---------------------------------------------------------------------------|
E|---------------------------------------------------------------------------|

+2 reply
microchip007.steam 20 Aug 23, 2017 04:48 AM

Thanks for the chords. Sounds awesome! :D

+2 reply
pakopako 834 Aug 23, 2017 10:50 AM

Sounds very good!

guest
You may want to rate the tab now too:
select rating
Wanna post a correction for this tab? Suggest correction