Oops, an error
Loading. Please wait.

Without You intro tab

by Avicii
295 views 129 this week
1 commentread comment
1 2 3 4 5
3 more votes to show rating
add to favorites
×
Save as Personal and add changes to this tab that will be seen only by you. Learn more ›
×
You can save this tab as Personal to edit and correct it or add notes. All changes will be seen only by you. Learn more »
launch autoscroll
font size
0
reset
how to read this tab
guitar tuner
edit
Autoscroll
slow
fast
+/-
esc
set tempo
stop
[Intro]

e|---------------------------------------------------------------------------|
B|-5--7--9--5\10--10--9-|-5--7--9--5--7--5--4--5-----------------------------|
G|---------------------------------------------------------------------------|
D|---------------------------------------------------------------------------|
A|---------------------------------------------------------------------------|
E|---------------------------------------------------------------------------|

e|---------------------------------------------------------------------------|
B|-5--7--9--5--9p12p10--9-|-5--7--9--5--7--5--4--5---------------------------|
G|---------------------------------------------------------------------------|
D|---------------------------------------------------------------------------|
A|---------------------------------------------------------------------------|
E|---------------------------------------------------------------------------|

e|---------------------------------------------------------------------------|
B|-5--7--9--5--9--10--12--9-|-5--7--9--5--7--5--4--5-------------------------|
G|---------------------------------------------------------------------------|
D|---------------------------------------------------------------------------|
A|---------------------------------------------------------------------------|
E|---------------------------------------------------------------------------|

e|---------------------------------------------------------------------------|
B|-5--7--9--5--9p12p10--9-|-5--7--9--5--7--5--4--5-------------------------|
G|---------------------------------------------------------------------------|
D|---------------------------------------------------------------------------|
A|---------------------------------------------------------------------------|
E|---------------------------------------------------------------------------|

[Chorus]

Capo 4th Fret

DMx2/AMx2/Cx2
e|-------------------|
B|--7-5--------------|
G|------7-5-4--------|
D|-------------------|
A|-------------------|
E|-------------------|

Fx2/EMx2/AMx2

e|-------------------|
B|--7-5-4------------|
G|--------6----------|
D|-------------------|
A|-------------------|
E|-------------------|



************************************

| \  Slide down
| p  Pull-off

************************************

            
            
Suggest correction
Creating personal tab
Creating personal tab
You can edit any tab online and save it as your Personal.

You can edit, replace or remove any tab part or add personal notes – all changes will be seen only by you.

Personal tabs can be accessed anytime from any device, even offline.
Learn more »
Give kudos to tab author, rate the tab!
1 2 3 4 5
comments
print report bad tab
1 comment total.
0 reply
Amourito 26 Aug 09, 2017 03:06 AM

I would like to everyone who is taking a look on this tab :D it really means a lot! Hope you enJoy

guest
You may want to rate the tab now too:
select rating
Wanna post a correction for this tab? Suggest correction