Oops, an error
Loading. Please wait.

Aria Di Te tab

25 views 1 this week
no commentswrite comment
1 2 3 4 5
x 3
add to favorites
×
Save as Personal and add changes to this tab that will be seen only by you. Learn more ›
×
You can save this tab as Personal to edit and correct it or add notes. All changes will be seen only by you. Learn more »
launch autoscroll
font size
0
reset
how to read this tab
guitar tuner
edit
Autoscroll
slow
fast
+/-
esc
set tempo
stop
[Intro]
  Gm    D#maj7/G
e|--------------------------------|--------------------------------|
B|3-----3---3---3---3---3-----3---|3-----3---3---3---3---3-----3---|
G|3-----3---3---3---3---3-----3---|3-----3---3---3---3---3-----3---|
D|0-----1---1---0---0---1-----0---|0-----1---1---0---0---1-----0---|
A|--------------------------------|--------------------------------|
E|3-------3-------3-------3-------|3-------3-------3-------3-------|

  F#m/+5 F#m6/+5
e|--------------------------------|--------------------------------|
B|3-----3---3---3---3---3-----3---|3-----3---3---3---3---3-----3---|
G|2-----2---2---2---2---2-----2---|2-----2---2---2---2---2-----2---|
D|0-----1---1---0---0---1-----0---|0-----1---1---0---0---1-----0---|
A|--------------------------------|--------------------------------|
E|2-------2-------2-------2-------|2-------2-------2-------2-------|

  Gm    D#maj7/G
e|--------------------------------|--------------------------------|
B|3-----3---3---3---3---3-----3---|3-----3---3---3---3---3-----3---|
G|3-----3---3---3---3---3-----3---|3-----3---3---3---3---3-----3---|
D|0-----1---1---0---0---1-----0---|0-----1---1---0---0---1-----0---|
A|--------------------------------|--------------------------------|
E|3-------3-------3-------3-------|3-------3-------3-------3-------|

  F#m/+5 F#m6/+5
e|--------------------------------|--------------------------------|
B|3-----3---3---3---3---3-----3---|3-----3---3---3---3---3-----3---|
G|2-----2---2---2---2---2-----2---|2-----2---2---2---2---2-----2---|
D|0-----1---1---0---0---1-----0---|0-----1---1---0---0---1-----0---|
A|--------------------------------|--------------------------------|
E|2-------2-------2-------2-------|2-------2-------2-------2-------|

  Fm6     Fm7
e|--------------------------------|--------------------------------|
B|1-----1---1---1---1---1-----1---|1-----1---1---1---1---1-----1---|
G|1-----1---1---1---1---1-----1---|1-----1---1---1---1---1-----1---|
D|0-----1---1---0---0---1-----0---|0-----1---1---0---0---1-----0---|
A|--------------------------------|--------------------------------|
E|1-------1-------1-------1-------|1-------1-------1-------1-------|

e|--------------------------------|--------------------------------|
B|--------------------------------|--------------------------------|
G|4-----4---4---4-5-----5---5---5-|7-----7---7---7-5-----5---5---5-|
D|5-----5---5---5-5-----5---5---5-|5-----5---5---5-3-----3---3---3-|
A|6-------6-------6-------6-------|6-------6-------5-------5-------|
E|--------------------------------|--------------------------------|

e|--------------------------------|--------------------------------|
B|--------------------------------|--------------------------------|
G|3-----3---3---3-5-----5---5---5-|3-----3---3---3-5-----5---5---5-|
D|3-----3---3---3-3-----3---3---3-|3-----3---3---3-3-----3---3---3-|
A|5-------5-------5-------5-------|5-------5-------4-------4-------|
E|--------------------------------|--------------------------------|

e|--------------------------------|------------------------2-------|
B|--------------------------------|------------------------3-------|
G|3-----3---3---3-3-----3---3---3-|1-----1---1---1---------2-------|
D|3-----3---3---3-1-----1---1---1-|1-----1---1---1-----4---0-------|
A|4-------4-------3-------3-------|3-------3-------5---------------|
E|--------------------------------|--------------------------------|

[Verse]
  Gm    D#maj7/G
e|--------------------------------|--------------------------------|
B|3-----3---3---3---3---3-----3---|3-----3---3---3---3---3-----3---|
G|3-----3---3---3---3---3-----3---|3-----3---3---3---3---3-----3---|
D|0-----1---1---0---0---1-----0---|0-----1---1---0---0---1-----0---|
A|--------------------------------|--------------------------------|
E|3-------3-------3-------3-------|3-------3-------3-------3-------|
  Ah,                              molesta molesta l'idea che si

  F#m/+5 F#m6/+5
e|--------------------------------|--------------------------------|
B|3-----3---3---3---3---3-----3---|3-----3---3---3---3---3-----3---|
G|2-----2---2---2---2---2-----2---|2-----2---2---2---2---2-----2---|
D|0-----1---1---0---0---1-----0---|0-----1---1---0---0---1-----0---|
A|--------------------------------|--------------------------------|
E|2-------2-------2-------2-------|2-------2-------2-------2-------|
  presta                           Alla voglia di

  Gm    D#maj7/G
e|--------------------------------|--------------------------------|
B|3-----3---3---3---3---3-----3---|3-----3---3---3---3---3-----3---|
G|3-----3---3---3---3---3-----3---|3-----3---3---3---3---3-----3---|
D|0-----1---1---0---0---1-----0---|0-----1---1---0---0---1-----0---|
A|--------------------------------|--------------------------------|
E|3-------3-------3-------3-------|3-------3-------3-------3-------|
  vederti di nuovo                 Molesto pretesto che non sarà

  F#m/+5 F#m6/+5
e|--------------------------------|--------------------------------|
B|3-----3---3---3---3---3-----3---|3-----3---3---3---3---3-----3---|
G|2-----2---2---2---2---2-----2---|2-----2---2---2---2---2-----2---|
D|0-----1---1---0---0---1-----0---|0-----1---1---0---0---1-----0---|
A|--------------------------------|--------------------------------|
E|2-------2-------2-------2-------|2-------2-------2-------2-------|
  puntuale                         Mi compro il giornale e mi siedo

  Fm6     Fm7
e|--------------------------------|--------------------------------|
B|1-----1---1---1---1---1-----1---|1-----1---1---1---1---1-----1---|
G|1-----1---1---1---1---1-----1---|1-----1---1---1---1---1-----1---|
D|0-----1---1---0---0---1-----0---|0-----1---1---0---0---1-----0---|
A|--------------------------------|--------------------------------|
E|1-------1-------1-------1-------|1-------1-------1-------1-------|
  ad aspettare

[Chorus]
e|--------------------------------|--------------------------------|
B|--------------------------------|--------------------------------|
G|4-----4---4---4-5-----5---5---5-|7-----7---7---7-5-----5---5---5-|
D|5-----5---5---5-5-----5---5---5-|5-----5---5---5-3-----3---3---3-|
A|6-------6-------6-------6-------|6-------6-------5-------5-------|
E|--------------------------------|--------------------------------|
  E l'aria sorprende    Sorprende i miei piani mandandoli  all'aria

e|--------------------------------|--------------------------------|
B|--------------------------------|--------------------5-------3---|
G|3-----3---3---3-5-----5---5---5-|4-----4---4---4-----4-------2---|
D|3-----3---3---3-3-----3---3---3-|3-----3---3---3-----5-------3---|
A|5-------5-------4-------4-------|4-------4-------3-------1-------|
E|--------------------------------|--------------------------------|
  All'aria di te,che mi sorprende, Maldestra maldestra la mia previsione 

e|--------------------------------|--------------------------------|
B|----5-------3-------5-------3---|----5-------3-------5-------3---|
G|----4-------2-------4-------2---|----4-------2-------4-------2---|
D|----5-------3-------5-------3---|----5-------3-------5-------3---|
A|3-------1-------3-------1-------|3-------1-------3-------1-------|
E|--------------------------------|--------------------------------|
  Di farti sorpresa d'amore                      Mi prendi di nuovo 

e|--------------------------------|--------------------------------|
B|----5-------3-------5-------3---|----5-------3-------5-------3---|
G|----4-------2-------4-------2---|----4-------2-------4-------2---|
D|----5-------3-------5-------3---|----5-------3-------5-------3---|
A|3-------1-------3-------1-------|3-------1-------3-------1-------|
E|--------------------------------|--------------------------------|
  come mi trovo Preso dall'aria di te            Aria che mi consola 

e|--------------------------------|--------------------------------|
B|----5-------3-------5-------3---|----5-------3-------5-------3---|
G|----4-------2-------4-------2---|----4-------2-------4-------2---|
D|----5-------3-------5-------3---|----5-------3-------5-------3---|
A|3-------1-------3-------1-------|3-------1-------3-------1-------|
E|--------------------------------|--------------------------------|
  Senza parola che non sia tua

e|----0---------------------------|----0---------------------------|
B|------------------------0-------|------------------------0-------|
G|3---3---2-2-----1-------1-------|3---3---2-2-----1-------1-------|
D|2---2---2-2-----2-------2-------|2---2---2-2-----2-------2-------|
A|3-------3-------3-------3-------|3-------3-------3-------3-------|
E|--------------------0-----------|--------------------0-----------|

e|----0---------------------------|----0---------------------------|
B|------------------------0-------|------------------------0-------|
G|3---3---2-2-----1-------1-------|3---3---2-2-----1-------1-------|
D|2---2---2-2-----2-------2-------|2---2---2-2-----2-------2-------|
A|3-------3-------3-------3-------|3-------3-------3-------3-------|
E|--------------------0-----------|--------------------0-----------|

[Strum]
    Am7      Dm7                              Bm7
e|--------0--1--3---8--6----5--5--3-----3--5--2--2--0---0--1--3--5--3--8--6--|
B|--1--3-----1------6-------5--5------7-------3-------3----------3-----5-----|
G|--0--------2------6-------2--3--------------2------------------3-----5-----|
D|--2--------0--------------------------------5------------------------------|
A|--0-----------------------------------------2--1---------------------------|
E|---------------------------------------------------------------------------|

e|--5--5--3-----3--5--2--2--0---0--1--3--5--3--8--6--5--5--5--5--5--5--5-----|
B|--5--5------7-------3-------3----------3-----5-----5--5--5--5--5--5--5-----|
G|--2--3--------------2------------------3-----5-----2--3--2--3--2--3--2-----|
D|--------------------5------------------------------------------------------|
A|--------------------2--1---------------------------------------------------|
E|---------------------------------------------------------------------------|

            
            
Suggest correction
Creating personal tab
Creating personal tab
You can edit any tab online and save it as your Personal.

You can edit, replace or remove any tab part or add personal notes – all changes will be seen only by you.

Personal tabs can be accessed anytime from any device, even offline.
Learn more »
Give kudos to tab author, rate the tab!
1 2 3 4 5
comments
print report bad tab
guest
You may want to rate the tab now too:
select rating
Wanna post a correction for this tab? Suggest correction