Oops, an error
Loading. Please wait.

Minds Of Men chords

by Aviv
79 views 6 this week
no commentswrite comment
1 2 3 4 5
3 more votes to show rating
add to favorites
×
Save as Personal and add changes to this tab that will be seen only by you. Learn more ›
×
You can save this tab as Personal to edit and correct it or add notes. All changes will be seen only by you. Learn more »
launch autoscroll
font size
0
reset
transpose
0
reset
display chords
guitar tuner
edit
Autoscroll
slow
fast
+/-
esc
set tempo
stop
About this tab version
Check out for the variation of the chords, specially for Eb which sounds much more accurate when played on the 6th fret. Was this info helpful? Yes No
Strumming
There is no strumming pattern for this song yet. and get +5 IQ
[Intro] 
  Eb                        Cm
e|---10p8------8--10-------|----10p8------8--10------|
B|---------11--------------|----------11-------------|
G|-------------------------|-------------------------|
D|-------------------------|-------------------------|
A|-------------------------|-------------------------|
E|-------------------------|-------------------------|

  Gm
e|---10p8------8--10-------|----10p8-----------------|
B|---------11--------------|----------11--10--8------|
G|-------------------------|-------------------------|
D|-------------------------|-------------------------|
A|-------------------------|-------------------------|
E|-------------------------|-------------------------|

  Eb                        Cm
e|---10p8------8--10-------|----10p8------8--10------|
B|---------11--------------|----------11-------------|
G|-------------------------|-------------------------|
D|-------------------------|-------------------------|
A|-------------------------|-------------------------|
E|-------------------------|-------------------------|

  Gm
e|---10p8------8--10-------|----10p8-----------------|
B|---------11--------------|----------11--10--8------|
G|-------------------------|-------------------------|
D|-------------------------|-------------------------|
A|-------------------------|-------------------------|
E|-------------------------|-------------------------|

[Verse 1]
Eb        Cm             Gm
 Hold the torch, burn it out,     
             Gm               Eb
 Spread your dirt, all around,
             Cm               Gm
 Finding our fears are inside out
                   
 You're just the string from the puppets mouth

[Chorus]
                    Eb   
 It's a new world order
                    Gm
 They till and they fall
                F                   Bb
 The pieces of ember, that kill us all,
               Eb                Gm
 In minds of men, there is no light
               F                           Bb
 It's hard to breath, in the pitch black night


[Verse 2]
Eb       Cm          Gm
 This is all on your head
          Gm                   Eb
 Keep in mind all you've said,
        Cm                Gm
 Paying debts till you're dead,
   
 This freeing life costs its rent,

[Interlude]
Eb         Gm
 Whoa Oh Oh
         F
 Whoa Oh Oh Oh Oh Oh 

[Verse 3]
Eb       Cm        Gm
 Lift em up, for a life,
            Gm
 Bright red roads,
                  Eb         Cm
 We row all night, Come lets go,
         Gm
 Change again, This skin is old,

 And weak are men

[Chorus]
                   Eb   
 It's a new world order
                     Gm
 They till and they fall
                F                   Bb
 The pieces of ember, that kill us all,
               Eb                Gm
 In minds of men, there is no light
               F                           Bb
 It's hard to breath, in the pitch black night

[Instrumental] 
e|----------3--------------------------------------|
B|-------------4-----------------4--3--4-----------|
G|--------3-------3-----3-----------------5-----5--|
D|-----5-------------5---------5-------------5-----|
A|--6-----------------------3----------------------|
E|-------------------------------------------------|

e|-----------5--3--5-----------------5--3--5-------|
B|--------3-----------3-----------3-----------3----|
G|-----------------------3-----------------------3-|
D|-----5-----------------------5-------------------|
A|--5-----------------------5----------------------|
E|-------------------------------------------------|

e|----------3--------------------------------------|
B|-------------4-----------------4--3--4-----------|
G|--------3-------3-----3-----------------5-----5--|
D|-----5-------------5---------5-------------5-----|
A|--6-----------------------3----------------------|
E|-------------------------------------------------|

e|-----------5--3--5-----------------5--3--5-------|
B|--------3-----------3-----------3-----------3----|
G|-----------------------3-----------------------3-|
D|-----5-----------------------5-------------------|
A|--5-----------------------5----------------------|
E|-------------------------------------------------|

e|----------3--------------------------------------|
B|-------------4-----------------4--3--4-----------|
G|--------3-------3-----3-----------------5-----5--|
D|-----5-------------5---------5-------------5-----|
A|--6-----------------------3----------------------|
E|-------------------------------------------------|

e|-----------5--3--5-----------------5--3--5-------|
B|--------3-----------3-----------3-----------3----|
G|-----------------------3-----------------------3-|
D|-----5-----------------------5-------------------|
A|--5-----------------------5----------------------|
E|-------------------------------------------------|

[Interlude]
                    Eb                        
 It's a new world order 
             Gm
 Whoa Oh Oh Oh
             F
 Whoa Oh Oh Oh Oh Oh
                  Eb                        
 It's a new world order 
             Gm
 Whoa Oh Oh Oh
             F
 Whoa Oh Oh Oh Oh Oh

[Final Chorus]
                  Eb   
 It's a new world order
                     Gm
 They till and they fall
                F                   Bb
 The pieces of ember, that kill us all,
               Eb                Gm
 In minds of men, there is no light
               F                           Bb
 It's hard to breath, in the pitch black night

[Outro]
                   Eb   
 It's a new world order
                     Gm
 They till and they fall
                F                   
 The pieces of ember, that kill us all,
               Eb                Gm
 In minds of men, there is no light
               F                           Bb
 It's hard to breath, in the pitch black night
Suggest correction
Creating personal tab
Creating personal tab
You can edit any tab online and save it as your Personal.

You can edit, replace or remove any tab part or add personal notes – all changes will be seen only by you.

Personal tabs can be accessed anytime from any device, even offline.
Learn more »
Give kudos to tab author, rate the tab!
1 2 3 4 5
comments
print report bad tab
guest
You may want to rate the tab now too:
select rating
Wanna post a correction for this tab? Suggest correction