Oops, an error
Loading. Please wait.

Chopstick Bridge Tab

version 2
version 2

Whole song

142 views 1 this week
no commentswrite comment
1 2 3 4 5
please rate
add to favorites
launch autoscroll
font size
0
reset
how to read this tab
guitar tuner
Autoscroll
slow
fast
+/-
esc
set tempo
stop
Help us to improve Ultimate-Guitar.com Take our survey!
×
Author
------------------------------------------------------------------------------                    
CHOPSTICK BRIDGE - Avoid One Thing     
-----------------------------------------------------------------------------

Tabbed by: Charlie
Comments and corrections : randomcharlie1@hotmail.com

Tuning: Standard

INTRO/CHORUS 

e|------------------------------------------------------|
B|-----------------------------------------------4h2h0--|
G|-4-4-x-x-------4-4------------------------4-4---------|
D|-4-4-x-x-4-4-x-4-4--2-2-2-2--2-2-x-x-4-4--4-4---------|
A|-2-2-x-x-4-4-x-2-2--2-2-2-2--2-2-x-x-4-4--2-2---------|
E|---------2-2-x------0-0-0-0--0-0-x-x-2-2--------------|

e|------------------------------------------------------|
B|-----------------------------------------------4h5h7--|
G|-4-4-x-x-------4-4------------------------4-4---------|
D|-4-4-x-x-4-4-x-4-4--2-2-2-2--2-2-x-x-4-4--4-4---------|
A|-2-2-x-x-4-4-x-2-2--2-2-2-2--2-2-x-x-4-4--2-2---------|
E|---------2-2-x------0-0-0-0--0-0-x-x-2-2--------------|

VERSE

e|-7---4---5---0---2-------7---4---5---4---2---|
B|-7---4---5---0---2-------7---4---5---4---2---|
G|-8---4---6---1---3-------8---4---6---4---3---|
D|-9---6---7---2---4-------9---6---7---6---4---|(listen to the song to work
A|-9---6---7---2---4-------9---6---7---6---4---| out the strumming)
E|-7---4---5---0---2-------7---4---5---4---2---|

PRE CHORUS

e|---------0----------------|
B|---------0----------------|
G|---------1----------------|
D|-2-x-x-x-2-x-x-4-x-x-x-4--|
A|-2-x-x-x-2-x-x-4-x-x-x-4--|
E|-0-x-x-x-0-x-x-2-x-x-x-2--|


GUITAR FILL (over verse, very faint over 2nd and 3rd verse)

e|------------------------------------------------|
B|-4h5h7-0h4h5h7-0h4h5h7-0h4h5h7------------------|
G|---------------------------------4~-4/6-4~-3~---|
D|------------------------------------------------|
A|------------------------------------------------|
E|------------------------------------------------|

BRIDGE

e|-0---2---7---4---|
B|-0---2---7---4---|
G|-1---3---8---4---|  X 2
D|-2---4---9---6---|
A|-2---4---9---6---|
E|-0---2---7---4---|

e|--4---2---0-------------------|
B|--4---2---0-------------------|
G|--4---3---1-------------------|
D|--6---4---2--4-4-4-4-4-4-4-4--|
A|--6---4---2--4-4-4-4-4-4-4-4--|
E|--4---2---0--2-2-2-2-2-2-2-2--|
             PM...............

SOLO

e|-11-11-11-11-11-11-11-12h11-11-12h11-11-12h11----|
B|-12-12-12-12-12-12-12-12----12-12----12-12-------|
G|-------------------------------------------------|  X 2
D|-------------------------------------------------|
A|-------------------------------------------------|
E|-------------------------------------------------|


SONG ORDER : 
INTRO
VERSE
PRE-CHORUS
CHORUS
VERSE (+2nd guitar fill)
PRE-CHORUS
CHORUS
BRIDGE
SOLO (+chorus guitar)
VERSE
CHORUS

Suggest correction
What's this?
You can suggest a correction to this tab. Community and Mods will review your correction and vote to approve or reject it.
comments
We did not receive enough feedback on this tab! Please rate:
print report bad tab
1 2 3 4 5
guest
You may want to rate the tab now too:
select rating
Please do not post tabs as comments. Select "correction" instead!