Oops, an error
Loading. Please wait.

Quarter Past Four tab

version 1
version 1

Whole song

175 views 18 this week
no commentswrite comment
1 2 3 4 5
3 more votes to show rating
add to favorites
×
Save as Personal and add changes to this tab that will be seen only by you. Learn more ›
×
You can save this tab as Personal to edit and correct it or add notes. All changes will be seen only by you. Learn more »
launch autoscroll
font size
0
reset
how to read this tab
guitar tuner
edit
Autoscroll
slow
fast
+/-
esc
set tempo
stop
 Song is Quarter Past Four, which consists mainly of four chords, Bm A D and G. 
See how the chords are picked below.
You can listen to the song here: https://youtu.be/l_t1VOe0IhE


[Intro]
  Bm           A            D                   G           Bm            A
e|-------------------------|-------2---2---2---|-------------------------|-------------------|
B|-------3------------2----|-----3---3---3---3-|-------0------------3----|-------2---2---2---|
G|-----4----4-------2----2-|---2---------------|-----0----0-------4----4-|-----2---2---2---2-|
D|---4------------2--------|-0-----------------|---0------------4--------|---2---------------|
A|-2------------0----------|-------------------|--------------2----------|-0-----------------|
E|-------------------------|-------------------|-3-----------------------|-------------------|   (x2)


[Verse]
  Bm           A            D                   G           Bm            A           G
e|-------------------------|-------2---2---2---|-------------------------|-------------------------------|
B|-------3------------2----|-----3---3---3---3-|-------0------------3----|-------2-----------0---0---0---|
G|-----4----4-------2----2-|---2---------------|-----0----0-------4----4-|-----2----2------0---0---0---0-|
D|---4------------2--------|-0-----------------|---0------------4--------|---2-----------0---------------|
A|-2------------0----------|-------------------|--------------2----------|-0-----------------------------|
E|-------------------------|-------------------|-3-----------------------|-------------3-----------------|(x2)
"Quarter past four ..."                    "I'd love to ..."
/ "Thinking where I'm going ..."        "While a thousand ..."

[Chorus]
  Bm           A            D           G      
e|-------------------------|-------2-------------------------------| 
B|-------3------------2----|-----3----3--------0---0---0---0---0---|
G|-----4----4-------2----2-|---2-------------0---0---0---0---0---0-|
D|---4------------2--------|-0-------------0-----------------------|
A|-2------------0----------|---------------------------------------|                 |
E|-------------------------|-------------3-------------------------|                 |
  "And I can't ..."                                                                  |
                                                                                     |(x2)
  Bm           A                   D            G                                    |
e|--------------------------------|-------2----------------------------------------| |
B|-------3------------2---2---2---|-----3----3---------0---0---0---0---0---0---0---| | 
G|-----4----4-------2---2---2---2-|---2--------------0---0---0---0---0---0---0---0-|
D|---4------------2---------------|-0--------------0-------------------------------|
A|-2------------0-----------------|------------------------------------------------|
E|--------------------------------|--------------3---------------------------------|
  "But it turns ..."              "It turns out fine"


[Interlude]
  Bm           A            D                   G           Bm            A
e|-------------------------|-------2---2---2---|-------------------------|-------------------|
B|-------3------------2----|-----3---3---3---3-|-------0------------3----|-------2---2---2---|
G|-----4----4-------2----2-|---2---------------|-----0----0-------4----4-|-----2---2---2---2-|
D|---4------------2--------|-0-----------------|---0------------4--------|---2---------------|
A|-2------------0----------|-------------------|--------------2----------|-0-----------------|
E|-------------------------|-------------------|-3-----------------------|-------------------|   (x2)


[Verse]
  Bm           A            D                   G           Bm            A           G
e|-------------------------|-------2---2---2---|-------------------------|-------------------------------|
B|-------3------------2----|-----3---3---3---3-|-------0------------3----|-------2-----------0---0---0---|
G|-----4----4-------2----2-|---2---------------|-----0----0-------4----4-|-----2----2------0---0---0---0-|
D|---4------------2--------|-0-----------------|---0------------4--------|---2-----------0---------------|
A|-2------------0----------|-------------------|--------------2----------|-0-----------------------------|
E|-------------------------|-------------------|-3-----------------------|-------------3-----------------|(x2)
"Never really thought ..."              "When my heart ..."
/ "Thankful everyday ..."               "When my eyes ..."


[Chorus]
  Bm           A            D           G      
e|-------------------------|-------2-------------------------------| 
B|-------3------------2----|-----3----3--------0---0---0---0---0---|
G|-----4----4-------2----2-|---2-------------0---0---0---0---0---0-|
D|---4------------2--------|-0-------------0-----------------------|
A|-2------------0----------|---------------------------------------|                 |
E|-------------------------|-------------3-------------------------|                 |
  "And I ..."                                                                        |
                                                                                     |(x2)
  Bm           A                   D            G                                    |
e|--------------------------------|-------2----------------------------------------| |
B|-------3------------2---2---2---|-----3----3---------0---0---0---0---0---0---0---| | 
G|-----4----4-------2---2---2---2-|---2--------------0---0---0---0---0---0---0---0-|
D|---4------------2---------------|-0--------------0-------------------------------|
A|-2------------0-----------------|------------------------------------------------|
E|--------------------------------|--------------3---------------------------------|
  "But it turns ..."              "It turns out fine"


[Outro]
  Bm           A            D                   G           Bm            A
e|-------------------------|-------2---2---2---|-------------------------|-------------------|
B|-------3------------2----|-----3---3---3---3-|-------0------------3----|-------2---2---2---|
G|-----4----4-------2----2-|---2---------------|-----0----0-------4----4-|-----2---2---2---2-|
D|---4------------2--------|-0-----------------|---0------------4--------|---2---------------|
A|-2------------0----------|-------------------|--------------2----------|-0-----------------|
E|-------------------------|-------------------|-3-----------------------|-------------------|   (x3)


            
            
Suggest correction
Creating personal tab
Creating personal tab
You can edit any tab online and save it as your Personal.

You can edit, replace or remove any tab part or add personal notes – all changes will be seen only by you.

Personal tabs can be accessed anytime from any device, even offline.
Learn more »
Give kudos to tab author, rate the tab!
1 2 3 4 5
comments
print report bad tab
guest
You may want to rate the tab now too:
select rating
Wanna post a correction for this tab? Suggest correction