Oops, an error
Loading. Please wait.

Best Damn Thing Bass Tab

version 1
version 1

Whole song

Interactive

6,151 views 12 this week
4 commentsread comments
1 2 3 4 5
x 3
add to favorites
launch autoscroll
font size
0
reset
guitar tuner
Autoscroll
slow
fast
+/-
esc
set tempo
stop
Help us to improve Ultimate-Guitar.com Take our survey!
×
Avril Lavigne
The Best Damn Thing
The Best Damn Thing
2007 RCA Records
Submitted by: paramore_fans@yahoo.com


Key: D

Bass Tab

Tuning: Drop D


Intro and Verses:
G|---------|
D|---------|
A|-0-2-4-5-|
D|---------|


Refrains:
G|---------------------------|
D|---------------------------|
A|-2-------5---4---2---------|
D|-----5---------------5---7-|


Chorus: That you're not not not gonna get any better!!!
G|---------------------------------------|
D|---------------------------------------|
A|---------------------------------------|
D|-0-0-0-0---5-5-5-5---9-9-9-9---5-5-5-5-|
then
G|--------------------------------------|
D|--------------------------------------|
A|--------------------------------------|
D|-0-0-0-0---5-5-5-5---9-9-9-9---5-5--7-|


Bridge: Give me an A!!!
G|---------------1-2-|
D|-----------2-4-----|
A|-------------------|
D|-2-4-6-7-----------|


(Repeat Refrains and Chorus)


Outro: A little tricky here, but this is easier if you mastered it correctly
G|-----------7---5-----7p5h7--14----|------------------------------------------|---|
D|---------7---7---5-7-----------12-|-12-12-12\10-12-12-12---------------------|---|
A|-0-2-4-5--------------------------|------------------------5---3-5---5-5-5-5-|-5-|
D|----------------------------------|----------------------0---0-----0---------|---|
               x4
Suggest correction
Give kudos to tab author, rate the tab!
1 2 3 4 5
comments
print report bad tab
4 comments total. Showing first comments.
0 reply
Wazoo 131 Aug 21, 2007 09:52 PM

2 hi

0 reply
Avrill 1,042 Mar 29, 2009 09:11 AM

Wazoo, you're tone deaf
it's good

but
G|---------------------------------------|
D|---------------------------------------|
A|---------------------------------------|
D|-0-0-0-0---5-5-5-5---7-7-7-7---5-5-5-5-|
I think the 7 has to be 9

0 reply
CandyRock 521 Oct 24, 2009 05:20 AM

G|---------|
D|---------|
A|-0-2-4-5-|
D|---------|

I'm pretty sure it's

G|---------|
D|---------|
A|-0-3-4-5-|
D|---------|

guest
You may want to rate the tab now too:
select rating
Wanna post a correction for this tab? Suggest correction