Oops, an error
Loading. Please wait.

Best Damn Thing Tab

version 2
version 2

Whole song

Interactive

634 views 6 this week
no commentswrite comment
1 2 3 4 5
excellent!
x 3
add to favorites
launch autoscroll
font size
0
reset
how to read this tab
guitar tuner
Tab Pro tools
  • play this tab
  • loop segment
  • change instrument
  • show fretboard
  • metronome
×
Best way to learn
"Best Damn Thing"
Autoscroll
slow
fast
+/-
esc
set tempo
stop
Contributor
----------------------------------------------------------------
               The Best Damn Thing - Avril Lavigne
----------------------------------------------------------------

Tabbed by: Fabio-BlenderBR
 - Please rate and send me your feedback -


 -  Intro and Verse

[There is no guitar playing, but the main chord is a 'D']

 - Pre Chorus : 
(Where are the hopes, where are the dreams...)

Guitar 1
e|----------------------------------------------------|
B|----------------------------------------------------|
G|-4-4-4-4-4-4-------------7-7-7-7-7-7----------------|
D|-4-4-4-4-4-4-5-5-5-5-5-5-7-7-7-7-7-7-7-7-7-7-7-7----|
A|-2-2-2-2-2-2-3-3-3-3-3-3-5-5-5-5-5-5-7-7-7-7-7-7----|
E|-------------3-3-3-3-3-3-------------5-5-5-5-5-5----|

Guitar 2   
    [It's a piano, but this it's how it goes on guitar]
e|--14--12---------14--12---------14--12-----------------------|
B|---------15--12---------15--10---------15--10--12-14-15-12---|
G|-------------------------------------------------------------|
D|-------------------------------------------------------------|
A|-------------------------------------------------------------|
E|-------------------------------------------------------------|

(When do you think they'll finally see...)

Guitar 1 
e|----------------------------------------------|
B|----------------------------------------------|
G|-4-4-4-4-4-4----------------------------------|
D|-4-4-4-4-4-4-5-5-5-5-5-5-7-7-7-7-7-7----------|
A|-2-2-2-2-2-2-5-5-5-5-5-5-7-7-7-7-7-7----------|
E|-------------3-3-3-3-3-3-5-5-5-5-5-5----------|

Guitar 2 
e|---14--12---------14--12----------------------|
B|----------15--12---------15--10-10-10-10------|
G|----------------------------------------------|
D|----------------------------------------------|
A|----------------------------------------------|
E|----------------------------------------------|

 - Chorus : 
(That you're not not not gonna get any better...)

Guitar 1 
e|------------------------------------------------------|
B|------------------------------------------------------|
G|-7-7-7-7-7-7-------------4-4-4-4-4-4------------------|
D|-7-7-7-7-7-7-5-5-5-5-5-5-4-4-4-4-4-4-5-5-5-5-5-5------|
A|-5-5-5-5-5-5-5-5-5-5-5-5-2-2-2-2-2-2-5-5-5-5-5-5------|
E|-------------3-3-3-3-3-3-------------3-3-3-3-3-3------|

Guitar 2 
Repeat this 3 times
e|-10-10-------12-12-------14-14------14-15-17----|       
B|-------10-10-------10-10-------15-15------------| 
G|------------------------------------------------| 3x    
D|------------------------------------------------|
A|------------------------------------------------|
E|------------------------------------------------|

Guitar 2 
The the 4° time do this    (Exactly when guitar 1 get on the G chord)
                   
e|-10-10-------12-12-------14-14-------15-15-14-14-------12---|
B|-------10-10-------10-10-------15-15-------------15-15------|
G|------------------------------------------------------------|
D|------------------------------------------------------------|
A|------------------------------------------------------------|
E|------------------------------------------------------------|

(And yeah yeah yeah I'm a lot to handle...)

Guitar 1 
e|------------------------------------------------------|
B|------------------------------------------------------|
G|-7-7-7-7-7-7-------------4-4-4-4-4-4------------------|
D|-7-7-7-7-7-7-5-5-5-5-5-5-4-4-4-4-4-4-5-5-5-5-5-5---7--|
A|-5-5-5-5-5-5-5-5-5-5-5-5-2-2-2-2-2-2-5-5-5-5-5-5---7--|
E|-------------3-3-3-3-3-3-------------3-3-3-3-3-3---5--|

Guitar 2 
e|-10-10-------12-12-------14-14------14-15-17----|       
B|-------10-10-------10-10-------15-15------------| 
G|------------------------------------------------| 3x    
D|------------------------------------------------|    
A|------------------------------------------------|
E|------------------------------------------------|

 - Post Chorus
(Alright, alright, Yeah)

e|-------------|
B|-------------|
G|-2--5-6-7----|
D|-2--5-6-7----|
A|-0--3-4-5----|
E|-------------|

 -  Verse

[There is no guitar playing, but the main chord is a 'D']

 - Pre Chorus : 
(Where are the hopes, where are the dreams...)

Guitar 1
e|----------------------------------------------------|
B|----------------------------------------------------|
G|-4-4-4-4-4-4-------------7-7-7-7-7-7----------------|
D|-4-4-4-4-4-4-5-5-5-5-5-5-7-7-7-7-7-7-7-7-7-7-7-7----|
A|-2-2-2-2-2-2-3-3-3-3-3-3-5-5-5-5-5-5-7-7-7-7-7-7----|
E|-------------3-3-3-3-3-3-------------5-5-5-5-5-5----|

Guitar 2   
e|--14--12---------14--12---------14--12-----------------------|
B|---------15--12---------15--10---------15--10--12-14-15-12---|
G|-------------------------------------------------------------|
D|-------------------------------------------------------------|
A|-------------------------------------------------------------|
E|-------------------------------------------------------------|

(Now everybody's gonna see)

Guitar 1 
e|----------------------------------------------|
B|----------------------------------------------|
G|-4-4-4-4-4-4----------------------------------|
D|-4-4-4-4-4-4-5-5-5-5-5-5-7-7-7-7-7-7----------|
A|-2-2-2-2-2-2-5-5-5-5-5-5-7-7-7-7-7-7----------|
E|-------------3-3-3-3-3-3-5-5-5-5-5-5----------|

Guitar 2 
e|---14--12---------14--12----------------------|
B|----------15--12---------15--10-10-10-10------|
G|----------------------------------------------|
D|----------------------------------------------|
A|----------------------------------------------|
E|----------------------------------------------|

 - Chorus : 
(That you're not not not gonna get any better...)

Guitar 1 
e|------------------------------------------------------|
B|------------------------------------------------------|
G|-7-7-7-7-7-7-------------4-4-4-4-4-4------------------|
D|-7-7-7-7-7-7-5-5-5-5-5-5-4-4-4-4-4-4-5-5-5-5-5-5------|
A|-5-5-5-5-5-5-5-5-5-5-5-5-2-2-2-2-2-2-5-5-5-5-5-5------|
E|-------------3-3-3-3-3-3-------------3-3-3-3-3-3------|

Guitar 2 
Repeat this 3 times
e|-10-10-------12-12-------14-14------14-15-17----|       
B|-------10-10-------10-10-------15-15------------| 
G|------------------------------------------------| 3x    
D|------------------------------------------------|
A|------------------------------------------------|
E|------------------------------------------------|

Guitar 2 
The the 4° time do this    (Exactly when guitar 1 get on the G chord)
                   
e|-10-10-------12-12-------14-14-------15-15-14-14-------12---|
B|-------10-10-------10-10-------15-15-------------15-15------|
G|------------------------------------------------------------|
D|------------------------------------------------------------|
A|------------------------------------------------------------|
E|------------------------------------------------------------|

(And yeah yeah yeah I'm a lot to handle...)

Guitar 1 
e|------------------------------------------------------|
B|------------------------------------------------------|
G|-7-7-7-7-7-7-------------4-4-4-4-4-4------------------|
D|-7-7-7-7-7-7-5-5-5-5-5-5-4-4-4-4-4-4-5-5-5-5-5-5---7--|
A|-5-5-5-5-5-5-5-5-5-5-5-5-2-2-2-2-2-2-5-5-5-5-5-5---7--|
E|-------------3-3-3-3-3-3-------------3-3-3-3-3-3---5--|

Guitar 2 
e|-10-10-------12-12-------14-14------14-15-17----|       
B|-------10-10-------10-10-------15-15------------| 
G|------------------------------------------------| 3x    
D|------------------------------------------------|
A|------------------------------------------------|
E|------------------------------------------------|

 - Bridge
(Give me an A, always give me what I want...)

e|---------|
B|---------|
G|--2------|
D|--2------| 5x
A|--0------|
E|---------|

(Give me an L, let me hear you scream loud)

e|------------|
B|------------|
G|-7-7-7-7-7--|
D|-x-x-x-x-x--|
A|-5-5-5-5-5--|
E|------------|

 - Pre Chorus : 
(Where are the hopes, where are the dreams...)

Guitar 1
e|----------------------------------------------------|
B|----------------------------------------------------|
G|-4-4-4-4-4-4-------------7-7-7-7-7-7----------------|
D|-4-4-4-4-4-4-5-5-5-5-5-5-7-7-7-7-7-7-7-7-7-7-7-7----|
A|-2-2-2-2-2-2-3-3-3-3-3-3-5-5-5-5-5-5-7-7-7-7-7-7----|
E|-------------3-3-3-3-3-3-------------5-5-5-5-5-5----|

Guitar 2   
e|--14--12---------14--12---------14--12-----------------------|
B|---------15--12---------15--10---------15--10--12-14-15-12---|
G|-------------------------------------------------------------|
D|-------------------------------------------------------------|
A|-------------------------------------------------------------|
E|-------------------------------------------------------------|

(When do you think they'll finally see...)

Guitar 1 
e|----------------------------------------------|
B|----------------------------------------------|
G|-4-4-4-4-4-4----------------------------------|
D|-4-4-4-4-4-4-5-5-5-5-5-5-7-7-7-7-7-7----------|
A|-2-2-2-2-2-2-5-5-5-5-5-5-7-7-7-7-7-7----------|
E|-------------3-3-3-3-3-3-5-5-5-5-5-5----------|

Guitar 2 
e|---14--12---------14--12----------------------|
B|----------15--12---------15--10-10-10-10------|
G|----------------------------------------------|
D|----------------------------------------------|
A|----------------------------------------------|
E|----------------------------------------------|

 - Chorus : 
(That you're not not not gonna get any better...)

Guitar 1 
e|------------------------------------------------------|
B|------------------------------------------------------|
G|-7-7-7-7-7-7-------------4-4-4-4-4-4------------------|
D|-7-7-7-7-7-7-5-5-5-5-5-5-4-4-4-4-4-4-5-5-5-5-5-5------|
A|-5-5-5-5-5-5-5-5-5-5-5-5-2-2-2-2-2-2-5-5-5-5-5-5------|
E|-------------3-3-3-3-3-3-------------3-3-3-3-3-3------|

Guitar 2 
Repeat this 3 times
e|-10-10-------12-12-------14-14------14-15-17----|       
B|-------10-10-------10-10-------15-15------------| 
G|------------------------------------------------| 3x    
D|------------------------------------------------|
A|------------------------------------------------|
E|------------------------------------------------|

Guitar 2 
The the 4° time do this    (Exactly when guitar 1 get on the G chord)
                    
e|-10-10-------12-12-------14-14-------15-15-14-14-------12---|
B|-------10-10-------10-10-------15-15-------------15-15------|
G|------------------------------------------------------------|
D|------------------------------------------------------------|
A|------------------------------------------------------------|
E|------------------------------------------------------------|

(And yeah yeah yeah I'm a lot to handle...)

Guitar 1 
e|------------------------------------------------------|
B|------------------------------------------------------|
G|-7-7-7-7-7-7-------------4-4-4-4-4-4------------------|
D|-7-7-7-7-7-7-5-5-5-5-5-5-4-4-4-4-4-4-5-5-5-5-5-5---7--|
A|-5-5-5-5-5-5-5-5-5-5-5-5-2-2-2-2-2-2-5-5-5-5-5-5---7--|
E|-------------3-3-3-3-3-3-------------3-3-3-3-3-3---5--|

Guitar 2 
e|-10-10-------12-12-------14-14------14-15-17----|       
B|-------10-10-------10-10-------15-15------------| 
G|------------------------------------------------| 3x    
D|------------------------------------------------|
A|------------------------------------------------|
E|------------------------------------------------|
                                                                  
 - Final

(Let me hear you say hey hey hey...)

e|----------|
B|----------|
G|----------|
D|-5-6-7----| 2x
A|-3-4-5----|
E|----------|      

(Hey hey hey...)

e|----------------------------|
B|----------------------------|
G|-7-7-7-7-7-7-7-7-7-7-7-7-7--|
D|-x-x-x-x-x-x-x-x-x-x-x-x-x--| 
A|-5-5-5-5-5-5-5-5-5-5-5-5-5--|
E|----------------------------|          

(I'm the best damn thing that your eyes have ever seen)

e|---------------------------|
B|---------------------------|
G|-----------------------7---|
D|-5-5-5-5-5-7-7-7-7-7-7-7---|
A|-5-5-5-5-5-7-7-7-7-7-7-5---|
E|-3-3-3-3-3-3-5-5-5-5-5-----|               
comments
We did not receive enough feedback on this tab! Please rate:
print report bad tab
1 2 3 4 5
I want to post or [tab]
guest
You may want to rate the tab now too:
select rating
Please do not post tabs as comments. Select "correction" instead!