Oops, an error
Loading. Please wait.

Everything Back But You Tab

version 1
version 1

Whole song

Interactive

9,026 views 9 this week
2 commentsread comments
1 2 3 4 5
accurate
x 7
add to favorites
launch autoscroll
font size
0
reset
how to read this tab
guitar tuner
Tab Pro tools
  • play this tab
  • loop segment
  • change instrument
  • show fretboard
  • metronome
×
Best way to learn
"Everything Back But You"
Autoscroll
slow
fast
+/-
esc
set tempo
stop
Difficulty
novice
Avril Lavigne
Everything Back But You
The Best Damn Thing

Tabbed by: ghosti
(c) on this tab by ghosti


It's one of my favourite songs on the new Album. It's very easy to play! Enjoy it :-)
I wrote this tab for one guitar....
Tuning: Standard EADGBe


I don't know what the hell they guitar plays before solo, but i think you can play this...
It sounds really good for me! With distortion(of course):D
e|-------|
B|-------|
G|--14\--|
D|--14\--|
A|--12\--|
E|-------|


Intro(distortion):
Play it 2times...
e|--4-0-2-0----|--4-0-2-0----|--4-0-2-0----|---5-4---5-4----|
B|----------0--|----------0--|-------------|-0-----0-----0--|
G|1------------|1------------|1------------|----------------|
D|-------------|-------------|-------------|----------------|
A|-------------|-------------|-------------|----------------|
E|-------------|-------------|-------------|----------------|
(Let the last note ring at the second time you playing!)


Verse 1:(only Bass)
  E
Today was the worst day
  F#m
I went through hell
  A                              B
I wish I could remove it from my mind
E
Two months away from you
    F#m
But I couldn't tell
  A                                         B
I thought that everything was gonna be just fine



Refrain:
    C#m
The post card that you wrote
          A
with the stupid little note
E                             B
Something wasn't quite right about it
   C#m
It smelt like cheap perfume
       A
And it didn't smell like you
         E                   B
There is no way you can get around it
   |Don't play anything here... Put you hand on the guitar....|
Because you wrote



Chorus:
  E
I wish you were here
    F#m
You left out the 'E'
    A
You left without me and now you're somewhere out there
         E
with the bitch! slut! psycho! babe!
  F#m
I hate you, why are guys so lame?
A
Everything I gave you I want everything back but you



Repeat the Intro:
Play it only 1time
e|--4-0-2-0----|--4-0-2-0----|--4-0-2-0----|---5-4---5-4----|
B|----------0--|----------0--|-------------|-0-----0-----0~-|
G|1------------|1------------|1------------|----------------|
D|-------------|-------------|-------------|----------------|
A|-------------|-------------|-------------|----------------|
E|-------------|-------------|-------------|----------------|



Verse 2(only Bass):
   E                        F#m
My friends tried to tell me all along
     A                             B
that you weren't the right one for me
   E                        F#m
My friends tried to tell me to be strong
  A                                 B
I bet you didn't think that I would see



Refrain 2:
    C#m
The post card that you wrote
          A
with the stupid little note
    E                             B
but something wasn't quite right about it
  C#m
I want to see you cry
       A
like I did a thousand times
E                                  B
Now you're losing me you're losing me now
   |Don't play anything here... Put you hand on the guitar....|
Because you wrote



Chorus:
  E
I wish you were here
    F#m
You left out the 'E'
    A
You left without me and now you're somewhere out there
         E
with the bitch! slut! psycho! babe!
  F#m
I hate you why are guys so lame?
A
Everything I gave you I want everything back but you


Solo:
e|-0-0-----0-0-2-2-|-0-0-----0-0-2-2-|-0-0-----------------------------|
B|-----4-4---------|-----4-4---------|-----4-4-2-2-0-0-------------0-0-|
G|-----------------|-----------------|-----------------2-2-1-1-2-2-----|
D|-----------------|-----------------|---------------------------------|
A|-----------------|-----------------|---------------------------------|
E|-----------------|-----------------|---------------------------------|
         

e|-12-12-11-11-12-12-14-14-|-12-12-11-11-12-12-14-14-|-12-12-11-11-9-9-7-7-5-5-4-4-2-2-----|
B|-------------------------|-------------------------|---------------------------------4-4-|
G|-------------------------|-------------------------|-------------------------------------|
D|-------------------------|-------------------------|-------------------------------------|
A|-------------------------|-------------------------|-------------------------------------|
E|-------------------------|-------------------------|-------------------------------------|



Refrain:
    C#m
The post card that you wrote
          A
with the stupid little note
E                             B
Something wasn't quite right about it
   C#m
It smelled like chick perfume
       A
And it didn't smell like you
         E                   B
There is no way you can get around it
   |Don't play anything here... Put you hand on the guitar....|
Because you wrote



Chorus(only Bass):
  E
I wish you were here
    F#m
You left out the 'E'
    A
You left without me and now you're somewhere out there
         E
with the bitch! slut! psycho! babe!
  F#m
I hate you why are guys so lame?
A
Everything I gave you I want everything back but you



Ending:
  E
I wish you were here
    F#m
You left out the 'E'
    A
You left without me, everything back but you
  E
I wish you were here
    F#m
You left out the 'E'
    A
You left without me, everything back but you

Outro: E



--------------------------------------------------------------
--------------------------------------------------------------
                                                            ||
For the guys who want to play this song with PowerChords:   ||
But I think it sounds much better with normal chords....    ||
E     022xxx                                                ||
F#m   244xxx                                                ||
A     x022xx                                                ||
B     x244xx                                                ||
C#m   x466xx                                                ||
                                                            ||
                                                            ||
If you don't know how to play the normal chords:            ||
E     022100                                                ||
F#m   244222                                                ||
A     x02220                                                ||
B     x24442                                                ||
C#m   x46654                                                ||
                                                            ||
--------------------------------------------------------------
--------------------------------------------------------------



You like that tab? Or you found some mistakes? Please send me an E-Mail to: gb-rockers@web.de
comments
print report bad tab
2 comments total.
+3 reply
rockstarbowker wrote on April 18 2007, 07:53 pm

The intro is wrong.
It goes like this:

e|--4-0-2-0----|--4-0-2-0----|--4-0-2-0----|---5-4-0-5-4-0--|
B|0---------2--|0---------2--|0---------0--|----------------|
G|-------------|-------------|-------------|----------------|
D|-------------|-------------|-------------|----------------|
A|-------------|-------------|-------------|----------------|
E|-------------|-------------|-------------|----------------|

0 reply
osiris_guard wrote on April 10 2008, 05:53 am

hey It's a nice tab but there are some wrongs...
That's my comment

I want to post or [tab]
guest
You may want to rate the tab now too:
select rating
Please do not post tabs as comments. Select "correction" instead!