Oops, an error
Loading. Please wait.

Everything Back But You Guitar Pro

version 3
version 3

Whole song

Interactive

3,103 views 1 this week
3 commentsread comments
1 2 3 4 5
please rate
add to favorites
guitar tuner
Autoscroll
slow
fast
+/-
esc
set tempo
stop
Help us to improve Ultimate-Guitar.com Take our survey!
×
Author
Filesize
Instruments
51 Kb
rhythm guitar, lead guitar, bass, percussion
"Everything Back But You"
demo version
Play now

or get full version for Free

Get full version now!
To learn and play this song
in Tab Pro, start free trial
Start free trial

or get $10 off Welcome Bonus

Get welcome bonus
Get access to Tab Pro version of “Everything Back But You”!
Tab Pro is a premium guitar tab service, available on PC, Mac, iOS and Android
START FREE TRIAL
Your download will start in 7 seconds
×
Enter for a chance to win a FREE lesson from The Doors’ guitarist Robby Krieger plus other great prizes!
To download “Everything Back But You” Guitar Pro tab click button below
Please note that you must have Guitar Pro software installed on your
computer in order to view this file.
comments
We did not receive enough feedback on this tab! Please rate:
report bad tab
1 2 3 4 5
3 comments total.
0 reply
j053montenegro 469 wrote on July 24 2009, 11:51 am

Maybe you'll find easier the intro this way...

e|-----------------| |-------------------|
B|----9------------| |--10-9---10-9---9--|
G|------9-11-9-----|x3 |-------9------9----|
D|--9----------11--| |-------------------|
A|-----------------| |-------------------|
E|-----------------| |-------------------|

You putted your own punk style, and that's really cool... you may wanna check out my try, version 4. j053montenegro

0 reply
j053montenegro 469 wrote on July 24 2009, 11:53 am

Damn it, it should be postted:
e|-----------------| |-------------------|
B|----9------------| |--10-9---10-9---9--|
G|------9-11-9-----|x3 |-------9------9----|
D|--9----------11--| |-------------------|
A|-----------------| |-------------------|
E|-----------------| |-------------------|

0 reply
j053montenegro 469 wrote on July 24 2009, 11:53 am

it's keeps wrong, but you'll find out...

guest
You may want to rate the tab now too:
select rating
Please do not post tabs as comments. Select "correction" instead!