Oops, an error
Loading. Please wait.

Forgotten Tab

version 1
version 1

Intro

Whole song

Interactive

4,263 views 3 this week
3 commentsread comments
1 2 3 4 5
accurate
x 5
add to favorites
launch autoscroll
font size
0
reset
how to read this tab
guitar tuner
Tab Pro tools
  • play this tab
  • loop segment
  • change instrument
  • show fretboard
  • metronome
×
Best way to learn
"Forgotten"
Autoscroll
slow
fast
+/-
esc
set tempo
stop
Contributor
Avril Lavigne
Forgotten Intro
Originally came from piano and I transposed it to guitar.

Tabbed by:n2sd_182
Email:canuck_inbred@yahoo.com

Tuning: standard EADGBe


(Ah-ha-ha-ha)

e|----8----------------------------------|
B|--8------------------------------------|
G|--------8-7----------------------------|
D|---------------------------------------| (x4)
A|------6---5----------------------------|
E|--8-----------7------------------------|

sounds 100% to me.

Verse (i'm giving up, on everything...)

e|---------------------------------------|
B|---------------------------------------|
G|---------------------------------------|
D|---------------------------------------| (x4)
A|------6---5----------------------------|
E|--8-----------6------------------------|
comments
print report bad tab
3 comments total.
0 reply
Blue-toxic wrote on May 4 2008, 04:30 pm

Amazing but this should be


e|---------------------------------------|
B|---------------------------------------|
G|---------------------------------------|
D|---------------------------------------|
A|------6---5----------------------------|
E|--8-----------7------------------------|

0 reply
sezar wrote on August 16 2014, 06:22 am

e|----8----------------------------------|
B|--8------------------------------------|
G|--------8-7----------------------------|
D|---------------------------------------| (x4)
A|------6---7----------------------------|
E|--8-----------7------------------------|

0 reply
sezar wrote on August 16 2014, 06:23 am

e|----8----------------------------------|
B|--8------------------------------------|
G|--------8-7----------------------------|
D|---------------------------------------| (x4)
A|------6---7----------------------------|
E|--8-----------7------------------------|

I want to post or [tab]
guest
You may want to rate the tab now too:
select rating
Please do not post tabs as comments. Select "correction" instead!