Oops, an error
Loading. Please wait.

Girlfriend Tab

version 2
version 2

Interactive

66,098 views 24 this week
3 commentsread comments
1 2 3 4 5
x 21
add to favorites
launch autoscroll
font size
0
reset
how to read this tab
guitar tuner
backing track
0:00
0:00
Autoscroll
slow
fast
+/-
esc
set tempo
stop
Author
Difficulty
novice
Girlfriend by Avril Lavigne , Created By Jack Dunkerley (Punk 2k6)

Right this is Avril's lastest single and i think it is pretty good to be honest. it aint 
hard either so enjoy =D

Intro [Just Avril singing]

[Verse]
e|--------------------------------------------------------------------|
B|--------------------------------------------------------------------|
G|-77-777-777-777-----------------------------------------------------|
D|-xx-xxx-xxx-xxx--77-777-777-777--99-999-999-999-55-555-555-555---X2-|
A|-55-555-555-555--77-777-777-777--99-999-999-999-55-555-555-555------|
E|-----------------55-555-555-555--77-777-777-777-33-333-333-333------|

[Pre-Chorus]
e|----------------------------------------------------------------------|
B|----------------------------------------------------------------------|
G|----------------------------------------------------------------------|
D|--9-9-9-9-9-9-9-9-9-9-9-9-9-9-9-9--4-4-4-4-4-4-4-4-4-4-4-4-4-4-4-4----|
A|--9-9-9-9-9-9-9-9-9-9-9-9-9-9-9-9--4-4-4-4-4-4-4-4-4-4-4-4-4-4-4-4----|
E|--7-7-7-7-7-7-7-7-7-7-7-7-7-7-7-7--2-2-2-2-2-2-2-2-2-2-2-2-2-2-2-2----|

e|------------------------------------------------------------------|
B|------------------------------------------------------------------|
G|------------------------------------------------------------------|
D|-7-7-7-7-7-7-7-7-7-7-7-7-7-7-7-7--5-5-5-5-5-5-5-5-5-5-5-5-5-5-5-5-|
A|-7-7-7-7-7-7-7-7-7-7-7-7-7-7-7-7--5-5-5-5-5-5-5-5-5-5-5-5-5-5-5-5-|
E|-5-5-5-5-5-5-5-5-5-5-5-5-5-5-5-5--3-3-3-3-3-3-3-3-3-3-3-3-3-3-3-3-|

  [Chorus]
e|-------------------------------------------------|
B|-------------------------------------------------|
G|--77--------------------55-----------------------|
D|--77-7-77-99--5-55--X3--55-33-5-5555555----------|[This whole part is X2]
A|--55-7-77-99--5-55------33-44-5-5555555----------|
E|-----5-55-77--3-33---------22-3-3333333----------|

then repeat the verse, prechorus and chorus. it then goes into a bridge whihc is just 
drums. then just finish off the song by repeating the chorus riff plenty of times.

Hope you like my tab, i'm pretty sure its 100% right but if you have any improvements 
email me on do-ya-sen-saves@hotmail.com.

Adios people

************************************

| x  Dead note

************************************
Suggest correction
comments
print report bad tab
3 comments total.
+1 reply
paramore_fans 64,184 Mar 13, 2007 10:45 PM

Chorus

E-------------------------------------------------|
B-------------------------------------------------|
G--77--------------------55-----------------------|
D--77-7-77-99--5-55--X3--55-33-5-5555555----------|[This whole part is X2]
A--55-7-77-99--5-55------33-44-5-5555555----------|
E-----5-55-77--3-33---------22-3-3333333----------|

I saw your mistake, Av din't play the C-F#m-G, it's supposed to be D-F#m-G besides this isn't 100% correct. Av played this song in dROP D tuning not standard. You can watch her video at youtube, it's clearly drop D!!! You can also check my guitar pro version of this song.

0 reply
blur819 1,341 May 10, 2007 04:35 PM

Agreed on the Drop D. But this works too. The verse could use a few chords though (on the second part)... likely played by guitar 2... I dunno, not a big fan.

Add onto latter part of verse(s)

|-x
|-x
|-11
|-x
|-9
|-x......

and end with a few

|-x
|-x
|-7
|-x
|-5
|-x

My daughters like it though... so not bad.

Peace

0 reply
LuchadorMetal 466 Jul 14, 2014 10:11 AM

Even though it's in drop D, this works just as well. Also, this tab is missing some parts.

guest
You may want to rate the tab now too:
select rating
Wanna post a correction for this tab? Suggest correction