Oops, an error
Loading. Please wait.

He Wasnt Bass Tab

version 1
version 1

Whole song

Interactive

3,651 views 6 this week
2 commentsread comments
1 2 3 4 5
accurate
x 5
add to favorites
launch autoscroll
font size
0
reset
guitar tuner
Tab Pro tools
  • play this tab
  • loop segment
  • change instrument
  • show fretboard
  • metronome
×
Best way to learn
"He Wasnt"
Autoscroll
slow
fast
+/-
esc
set tempo
stop
Contributor
Difficulty
novice
this tab is off my own and not a copy version from anyone else..
i see there isnt this song tabbed on the bass on ultimate-guitar.com
so here it is..check the cd for timing and song order.

intro/guitar only bass comes in wen drums and both guitars and avril starts singing.

verse
G:-------------------------------------------------------------------|
D:-------------------------------------------------------------------|
A:-55-555-555-555-33-333-333-333-55-555-555-555-5-33-333-333-333-1-0-|
E:-------------------------------------------------------------------|

chorus
G:-------------------------------------------------------|
D:-------------------------------------------------------|
A:-55555555-/1010101010101010-55555555-/1010101010101010-|
E:-------------------------------------------------------|
theres a few ways to play the chorus but this is the better way to do it
slide from A:5 to A:10 you get a nice feel.

bridge
G:------------------|
D:------------------|
A:-33-/77-/55-/1010-|
E:------------------|

end on A:/5

ok so there it is there are only 3 parts to this song.

song order:
intro (bass doesnt plat this)
verse
chorus
verse
chorus
bridge
chorus til end

plz rate. :D
comments
print report bad tab
2 comments total.
+1 reply
paramore_fans wrote on August 20 2007, 12:01 am

dude, this is the way Charlie Moniz(Av's bassist way back in 2003-2005) play, your job is good but there is a lack of refrain and other stuff


Refrain: Sit on my bed alone...
G|------------------
D|------------------
A|---8----7----8----
E|-1----0----1----0-


And the chorus is supposed to be like this
G|-------------------------------------------
D|-----------------4-5-7---------------------
A|-5-5-5-5-5-5-5-5-------5-------------10-10-
E|-------------------------3-3-3-3-3-3-------

+1 reply
paramore_fans wrote on September 2 2007, 12:31 am

Avril Lavigne
He Wasn't
Under My Skin
2004 RCA Records
Submitted by: paramore_fans@yahoo.com

Bass Tab:

Key: D

Tuning: Standard EADG


Verses: what happened to my saturday...
G|-----------------|-----------------
D|-----------------|-----------------
A|-5-5-5-5-5-5-5-5-|-3-3-3-3-3-3-3-3-
E|-----------------|-----------------
x2 x2

Monday's coming the day I hate
G|--------------------3-----2-
D|----------------------------
A|-5-5-5-5-5-5-5-5-1-----0----
E|----------------------------
x2


Refrain: Sit on my bed alone, staring at the phone
G|----------------------
D|----------------------
A|----8-----7------8----
E|-1-----0------1-----0-


Chorus: He wasn't what I wanted what I thought no...
G|-----------------------------------------------------------------
D|-------------------------4-5-7-----------------------------5-5-5-
A|-5-5-5-5-5-5-5-5-5-5-5-5-------5-------------------------5------- (x2)
E|---------------------------------3-3-3-3-3-3-3-3-3-3-3-3---------


Post Chorus: Hey! Hey! Hey! Hey!...
G|---------------------------------------------------------
D|---------------------------------------------------------
A|-5-5-5-5-5-5-5-5-5-5-5-5-5-5-5-3-5-5-5-5-5-5-5-5-5-5-5-5-
E|---------------------------------------------------------


Pre Bridge: Oh oh.. um ah oh oh ah oh...
G|-----------------|-----------------
D|-0-0-0-0-0-0-0-0-|-5-5-5-5-5-5-5-5-
A|-----------------|----------------- (x2)
E|-----------------|-----------------
x2 x2


Bridge: Pluck the string slowr here

Na na na na na we've all got voices
G|---------------7-
D|-----2-2-0-0-5---
A|-3-3-------------
E|-----------------

Na na na na na we've all got choices
G|-----------------
D|-----2-2-0-0-5-0-
A|-3-3------------- (x3)
E|-----------------


Refrain: Sit on my bed...
G|---
D|---
A|---
E|-1-

I want to post or [tab]
guest
You may want to rate the tab now too:
select rating
Please do not post tabs as comments. Select "correction" instead!