Oops, an error
Loading. Please wait.
We have Chord Pro version of Im With You.
It's the closest thing you can get to the original song and it has interactive parts. Check out the tab »
×
197 views 1 this week
2 commentsread comments
1 2 3 4 5
1 last vote to show rating
add to favorites
×
Save as Personal and add changes to this tab that will be seen only by you. Learn more ›
×
You can save this tab as Personal to edit and correct it or add notes. All changes will be seen only by you. Learn more »
launch autoscroll
font size
0
reset
guitar tuner
edit
Autoscroll
slow
fast
+/-
esc
set tempo
stop
Author
Difficulty
E standard tuning

Very detailed tab, hope it's easy to understand / read

Here's an audio file I did to help out (you may need to raise volume) - 
http://www.dailymotion.com/video/x2wowdj


====================
| /  slide up
| \  slide down
| h  hammer-on
| p  pull-off
| ~  vibrato
| +  harmonic
| x  Mute note
====================


No bass until 0:47

Chorus [0:47] ("It's a damn cold night...")
G|--------------------------------|
D|--------------------------------|
A|-----2~~~5~~~~~~----2~~~5~~~~~~-|
E|-5~~~-----------5~~~------------|

G|--------------------------------|
D|--------------------------------|
A|-----2~~~5~~~~~~----7~~~5~~~~~~-|
E|-5~~~-----------2~~~------------|

Post-chorus [1:06] ("I'm with you...")
G|------------------------------|
D|------------------------------|
A|--------5~~~~~~-------5~~~~~~-|
E|-2~~~~~~-------2~~~~~~--------|

Verse [1:16] ("I'm looking for a place...")
G|----------------------------------|
D|----------------------------------|
A|----5/7-5----7/9-7--------5~~~~~~-| for 1st slide, don't strike 7
E|-2~~------2~~------2~~~~~~--------| for 2nd slide, don't strike 9

G|----------------------------------|
D|----------------------------------|
A|----5/7-5----7/9-7--------5~~~~~~-| same as before
E|-2~~------2~~------2~~~~~~--------|

Pre-chorus [1:35] ("Isn't anyone trying to find me...")
G|------------------------------|
D|------------------------------|
A|-7~~~~~~5~~~~~~7~~~~~~5~~~~~~-|
E|------------------------------|

Repeat Chorus [1:44]

Repeat Post-chorus [2:03]

Bridge [2:13]
G|---------------------------------|
D|---------------------------------|
A|-7~~~7~~~245-20~7~~~7~~~2~~~2~~~-| fill notes are quarters, don't rush
E|------------0--------------------|

G|----------------------------------------|
D|----------------------------------------| don't strike slide and also
A|-7~~~777-5~~~555-4~~~444-7~~~777-/12~~~x| don't strike mute, just stop
E|----------------------------------------| the slide from ringing long

**Note that slide rings out between end of bridge and start of chorus**
  Slide starts, rings and ends while Avril sings "...damn"


No bass again until Avril sings "but I, I'm with" - bass joins on "I"
[2:48]
G|--------|
D|--------|
A|-555555-| again, these are quarter notes, don't rush
E|--------|

End Chorus [2:50]
G|--------------------------------|
D|--------------------------------|
A|-----2~~~5~~~~~~----2~~~5~~~555-|
E|-5~~~-----------5~~~------------|

G|-------------------------------|
D|-------------------------------|
A|-----2~~~5~~~~~~----7~~~555555-|
E|-5~~~-----------2~~~-----------|

G|--------------------------------|
D|--------------------------------|
A|-----2~~~5~~~~~~----2~~~5~~~555-|
E|-5~~~-----------5~~~------------|

G|--------------------------------|
D|--------------------------------|
A|-----2~~~5~~~~~~----7~~~5~~~~~~-| Bass drops out here and Avril sings
E|-5~~~-----------2~~~------------| ending with guitar and drums only


**If you want to join in with the band on the outro, here's this...**
G|-------------------------------------|
D|-------------------------------------|
A|--------5~~~~~~-------5~~~~~~0~~~~~~-|
E|-2~~~~~~-------2~~~~~~---------------|

            
            
Suggest correction
Creating personal tab
Creating personal tab
You can edit any tab online and save it as your Personal.

You can edit, replace or remove any tab part or add personal notes – all changes will be seen only by you.

Personal tabs can be accessed anytime from any device, even offline.
Learn more »
Give kudos to tab author, rate the tab!
1 2 3 4 5
comments
print report bad tab
2 comments total.
+1 reply
onereach7 10 Feb 13, 2016 05:48 AM

Very helpful. TYVM!

0 reply
Pale_Pilgrim 702 Feb 13, 2016 08:04 AM

You're very much welcome - I love this song! Thank you for commenting.

guest
You may want to rate the tab now too:
select rating
Wanna post a correction for this tab? Suggest correction