Oops, an error
Loading. Please wait.

Let Go Bass Tab

3,103 views 1 this week
no commentswrite comment
1 2 3 4 5
please rate
add to favorites
launch autoscroll
font size
0
reset
guitar tuner
Tab Pro tools
  • play this tab
  • loop segment
  • change instrument
  • show fretboard
  • metronome
×
Best way to learn
"Let Go"
Autoscroll
slow
fast
+/-
esc
set tempo
stop
Contributor
Album: Let Go
Artist: Avril Lavigne
Tab by UnterTaker

To view better the tabs copy it view it in a writning program... then change the text format
in Courier New, size 8.... good quality!!

•	Losing Grip
G|-------------------------|
D|-------------------------|
A|-------------------------|
E|-44-00-22-00-44-00-22-00-|

Chorus:
G|-----------------------------------------------------------|
D|-----------------------------------------------------------|
A|-----------------------------111111------------------------|
E|-4444400000-4444-2222-444-2-4------00000-4444-2222-444-2-4-|

Bridge:
G|-----------------------------------------|
D|-----------------------------------------|
A|-----------------------------------------|
E|-4-4-4-2-2-2-0-0-2-2-2-4-4-4-2-2-2-0-0-0-|

•	Complicated
VERSE - start playing after she says, "thats the way it is"
-------------------------------------------------|
---3--3--3-3--3-3--3-3---------------------------| ("Chill out, what ya yelling for...")
-------------------------5--5--5-5--5-5--5-5-----| ("no no no....")
-------------------------------------------------|

VERSE cont'd
-------------------------------------------------|
-------------------------------------------------| ("And if you could only....")
---1--1--1-1--1-1--1-1---3--3--3-3--3-3-3--------|
-------------------------------------------------|

PRE CHORUS
-----------------------------------------------------------------------------|
-----------------------------------------------------------------------------|
---1----1---1--1-slide-5----5---5--5-slide-1----1---1--1-slide-3(let ring)---|
-----------------------------------------------------------------------------|
("Somebody else round everyone else...")

CHORUS
-----------------------------------------|
-----------------3-3-3-3-----------------| ("Why'd you have to go make things...")
-5-5-5-5-1-1-1-1----------3-3-3-3--------|
-----------------------------------------|

POST CHORUS
-------------------------------|
-------------------------------|  ("Honestly promise me...")
------------------1 (let ring)-|
--3-3-3-3-3-3-3-3--------------|

VERSE variation
-------------------------------------------------|
---3--3--3-3--3-3--3-3----------------7---7------|
-------------------------5--5--5-5--5---5--------|
-------------------------------------------------|
variation cont'd
-------------------------------------------------|
----------------3----3----------------5---5------|
---1--1--1-1--1----1-----3--3--3-3--3---3--------|
-------------------------------------------------|

•	Sk8er boi
Intro
G|--------------------------------------------------------------|
D|--------------------------------------------------------------|
A|5-5-5-5-5-5-5-5-----------------------------------------------|
E|---------------5-5-5-5-5-5-5-5-7-7-7-7-7-7-7-7-6-6-6-6-5-5-5-5|     x2

Verse 1
G|--------------------------------------------------------------|
D|--------------------------------------------------------------|
A|5-5-5-5-5-5-5-5-----------------------------------------------|
E|---------------5-5-5-5-5-5-5-5-7-7-7-7-7-7-7-7-6-6-6-6-6-6-6-6|

G|--------------------------------------------------------------|
D|--------------------------------------------------------------|
A|5-5-5-5-5-5-5-5-----------------------------------------------|
E|---------------5-5-5-5-5-5-5-5-7-7-7-7-7-7-7-7-8-8-8-8-8-8-8-8|     x2

Chorus
G|--------------------------------------------------------------|
D|--------------------------------------------------------------|
A|---------------3-3-3-3-3-3-3-3-1-1-1-1-1-1-1-1-0-0-0-0-0-0-0-0|
E|1-1-1-1-1-1-1-1-----------------------------------------------|     x2

Verse 2
G|--------------------------------------------------------------|
D|--------------------------------------------------------------|
A|5-5-5-5-5-5-5-5-----------------------------------------------|
E|---------------5-5-5-5-5-5-5-5-7-7-7-7-7-7-7-7-6-6-6-6-6-6-6-6|

G|--------------------------------------------------------------|
D|--------------------------------------------------------------|
A|5-5-5-5-5-5-5-5-----------------------------------------------|
E|---------------5-5-5-5-5-5-5-5-7-7-7-7-7-7-7-7-8-8-8-8-8-8-8-8|     x2

Chorus 2	1.22
G|--------------------------------------------------------------|
D|--------------------------------------------------------------|
A|---------------3-3-3-3-3-3-3-3-1-1-1-1-1-1-1-1-0-0-0-0-0-0-0-0|
E|1-1-1-1-1-1-1-1-----------------------------------------------|     x4

Solo Guitar	1.51
G|------------------------------------------------|---------------|------------|
D|------------------------------------------------|---------------|------------|
A|---------------3-3-3-3-3-3-3-3-1-1-1-1-1-1-1-1--|-4--4--4--4----|--4—-4—-4—0-|
E|1-1-1-1-1-1-1-1---------------------------------|---------------|------------|

Bridge 	2.04
G|---------------------------------------------------------------|
D|---------------------------------------------------------------|
A|5-5-5-5-5-5-5-5-5-5-5-5-5-5-5-5--------------------------------|
E|-------------------------------1-1-1-1-1-1-1-1-1-1-1-1-1-1-1-1-|

G|---------------------------------------------------------------|
D|---------------------------------------------------------------|
A|---------------------------------------------------------------|
E|8-8-8-8-8-8-8-8-8-8-8-8-8-8-8-8-6-6-6-6-6-6-6-6-5-5-5-5-5-5-5-5|     x2

Middle 8	2.30
G|---------------------------------------------------------------|
D|---------------------------------------------------------------|
A|---------------------------------------------------------------|
E|-5-5-5----7-7-7----6-6-6---5-5------------5-5-5---7-7-7---8----|
Listen carefully for the timing

Chorus Last     x4

•	I'm With You
Verse
G|--------------------------|
D|--------------------------|
A|----0-0---5-5---0-0---5-5-|
E|-2-2---2-2---2-2---2-2----|

Pre-chorus
G|---------------|
D|---------------|
A|-7-7-5-5-7-7-5-|
E|---------------|

Chorus
G|------------------------------------|
D|----0---0---0-----------------------|
A|-0-2-0-2-0-2-4-2-0--4-4-4-4-0-0-0-0-|
E|------------------------------------|

Bridge
G|------------------------------------------------|
D|------------------------------------------------|
A|-7-7-7-7-7-7-5-5-5-5-5-5--4-4-4-4-4-4-7-7-7-7-7-| x2
E|------------------------------------------------|

•	Mobile
Verse:
G|--------------------------|
D|--------------------------|
A|-2-2---0-0---2-2---0-0----|
E|----2-2---0-0---2-2---0-0-|     many times

Chorus:
G|---------------------------------------------|
D|---------------------------------------------|
A|-0-0-0-0-0-0-0-------------2-2-2-2-2-2-2-2-0-|
E|--------------0-0-0-0-0-0-0------------------|

Bridge:
G|-------------------------------------------|
D|-------------------------------------------|
A|-00000000--------00000000--------22222222--|
E|---------00000000--------00000000----------|

•	Unwanted
G|-----------------|
D|-----------------|	many
A|-2-3-5-4-2-3-5-4-|	times
E|-----------------|

			. . . you just shut me out
G|-----------------------------------------|
D|-----------------------------------------|
A|-2-2-2-2-2-3-3-3-3-3-5-5-5-5-5-0-0-0-0-0-|
E|-----------------------------------------|

				. . . make me go away
G|-----------------------------------------|
D|-----------------------------------------|
A|-2-2-2-2-2-3-3-3-3-3-5-5-5-5-5-4-4-4-4-4-|
E|-----------------------------------------|

•	Tomorrow
Intro/Verse
G-----------------------------------------|
D-----------------------------------------|
A-------------------5-5-5-5-5-5-5-5-5-----|
E-5-5-5-5-5-5-5-5-5-------------------(5)-|

Chorus
G----------------------------------------------------------------------|
D----------------------------------------------------------------------|
A--9-9-9-9-9-9-9--7-7-7-7-7-7-7-7--5-5-5-5-5-5-5-5-4-4-4-4-4-4-4-4-2-0-|
E----------------------------------------------------------------------|

•	Anything But Ordinary
Verse:
G|----------------------------|
D|----------------------------|
A|-3-3-3----------------------|
E|------3-3-3-5-5-5-1-1-1-3-3-|

Chorus:
G|-------------------------------------------------------------|
D|-------------------------------------------------------------|
A|----------------3-3-2-2--------------------------------------|
E|-1-1-1-1-3-3-3-3-------5-5-5-5-1-1-1-1-3-3-3-3-5-5-5-5-5-5-5-|

G|---------------------------------------|
D|---------------------------------------|
A|-3-3-3-3-3-3-----------3-2-0-0-0-0-0-0-|
E|------------1-1-1-1-1-1----------------|

	              . . . anything but ordinary please
G|-------------------------------------|
D|-------------------------------------|
A|-3-3-3-3-3-3-1-1-1-1-1-1-0-0-0-0-0-0-|
E|-------------------------------------|

Bridge:
G|----------------------------------------------------|
D|-2-2-2-0-0-0--------------------0-0-0-2-0-0-0-2-4>>-|
A|------------0-0-0-----2-2-2-------------------------|
E|-----------------2-2-2-----2-2-2--------------------|

•	Things I'll Never Say
Intro
G|---------------------------|
D|-0--0-0--------------------|
A|-------0--0-0-2--2-2-------|
E|--------------------3--3-3-|

Verse
G|--------------------------------|
D|-------------0--0-0-------------|
A|-2--2-2------------0--0-0--0>>--|
E|-------3--3-3-------------------|

Chorus
G|----------------------------------------|
D|-0-0--0-0---------------------------0---|
A|---------0-0--0-0-2-2--2-2-----------3--|
E|--------------------------3-3--3-3------|

Solo
G|---------------------------------------|
D|-0-0---000-----------------------------|
A|----------0-0---000-2-2---222----------|
E|-----------------------------3-3---333-|

Bridge
G|----------------------|
D|----------------------|
A|-555555---------------|
E|--------555555-333333-|

•	My World
Verse:
G|--------------------------------------------|
D|--------------------------4-4--4-4----------|
A|-4-4---4-4------------------------4-4---4-4-|
E|----6-4---1-4-6-6-1-4-6-6------------6-4----|

Pre-chorus:
G|----------------------|
D|----------------------|
A|----1111---1111---4444|
E|-4-2----4-2----4-2----|

Chorus:
G|-------1-----------------------------1----------------------|
D|-44-3-4--------44-3-4-6--------44-3-4-33334--------3444463--|
A|---4----44-3-4---4-----44---44---4---------46666666-------4-|
E|----------4---4----------6-4--------------------------------|

take some time, mellow out. . .
G|--------------|
D|------1-3-4-6-|
A|-1-3-4--------|
E|--------------|

•	Nobody's Fool
Verse:
G|----------------------------------------------|
D|----------------------------------------------|
A|------2-2-2-4-4-2-0-0-2-----2-2-2-4-4-2-0-0-2-|
E|-0-0-0-----------------0-0-0------------------|

Chorus:
G|------------------------------------------------|
D|------------------------------------------------|
A|----------0-2-2-22-22-2-4-4-44-44-2-0-0-00-00-2-|
E|-0-0-00-00--------------------------------------|  0>>

•	Too Much To Ask
Verse
G|--------------------------|
D|--------------0-2-0-0-2-0-|
A|-------------3-----3------|
E|-3-2-0--3-2-0-------------|

Chorus
G|-------------------------------------------|
D|--------------------0----------------0-0-0-|
A|------2-2-2-3-3-3-3-------2-2-2-3-3-3------| x2
E|-3-3-3---------------3-3-3-----------------|

G|-------------------------|
D|-----------------0-------|
A|-4-4-3-3-4-3-3-3---------|
E|------------------3--2-0-|

Bridge
G|-----------------------------|
D|-----------------------------|
A|-----------------------------|
E|-0-0-0-0-0-0-1-1-1-1-3-3-3-3-|

•	Naked
Verse
G|-----------------------------5--------------------------------------555555-|
D|-------------------------------------------------------------555555--------|
A|-5-5-5-5---------3-3-3-3-3-3-----5-5-5-5---------3-3-3-3-3-3---------------|
E|---------3-3-3-3---------------3---------3-3-3-3---------------------------|

Chorus
G|-----------------------------------------------------------------------|
D|-----------------------------------------------------------------------|
A|--------3-3-3-3-2-2-2-2-0-0-0-0-0-0-0-0--------------------3-3-3-3-3-3-|
E|-3-3-3-3--------------------------------0-0-0-0-0-0-0-0-0-0------------|

G|-------------------------------------------------|
D|-------------------------------------------------|
A|-5-5-5-5-5-5-5-5-----------------3-3-3-3-3-3-3-3-|
E|-----------------3-3-3-3-3-3-3-3-----------------|

•	I don't give
Verse:
G|------------------------------|---------------|
D|------------------------------|---------------|
A|-3-5-3------------------------|-3-5-3-------3-|
E|------6-4-4-4-6-6-6-8-8-8-6-6-|------6-6-4-4--|

Chorus:
G|------------------------------------------|--------------------------------|
D|------------------------------------------|--------------------------------|
A|-6-6-6-6-6-6-6-6-6-6----------------------|-3-3-3-3-3-3-3-3-3-3------------|
E|--------------------4-4-4-4-4-6-6-6-6-6-6-|--------------------4-4-4-4-4-6-|

Bridge:
G|--------------------------|
D|--------------------------|
A|----3---3-6-6-6-6-8-8-8-8-|
E|-4-6-4-6------------------|


I think they're 99,9999999% correct so... good play!


X UnderTaker X
comments
We did not receive enough feedback on this tab! Please rate:
print report bad tab
1 2 3 4 5
I want to post or [tab]
guest
You may want to rate the tab now too:
select rating
Please do not post tabs as comments. Select "correction" instead!