Oops, an error
Loading. Please wait.

Nobodys Home Tab

version 4
version 4

Whole song

Interactive

15,604 views 24 this week
3 commentsread comments
1 2 3 4 5
x 4
add to favorites
launch autoscroll
font size
0
reset
how to read this tab
guitar tuner
×
Best way to learn
"Nobodys Home"
Autoscroll
slow
fast
+/-
esc
set tempo
stop
Author
Capo
1st fret
Avril Lavigne
"Nobody's Home"

Tabbed by: Nazeric


Standard tuning (EADGBe) - Capo on 1st fret

(Please listen for timing)


Intro:

Guitar 1:

|--0~--0~--0~--0~--|
|------------------|
|------------------|
|------------------|
|------------------|
|------------------| (done repeatedly until verse)


Guitar 2:

|---------0-------------0--------------------------------|
|-----0-------------3-----------------0-------------1--0-|
|---0---0---------2---2-----------0-------------0--------|
|-2-------------0---------------2---2---------2---2------|
|-----------------------------3-------------3------------|
|--------------------------------------------------------|




Verse:

Guitar 1: (Strum these chords)

  Em7    D     C     C  

|--0-----2-----3-----3--|
|--3-----3-----1-----1--|
|--0-----2-----0-----0--|
|--2-----------2-----2--|
|--2-----------3-----3--|
|--0--------------------|


Guitar 2:

  Em7           D             C             C

|---------0----------------------------------------------|
|-----0-------------------------------0------------------|
|---0---0-------------------------0----------------------|
|-2-----------------------------2---2--------------------|
|-----------------------------3--------------------------|
|--------------------------------------------------------|

|---------0----------------------------------------------|
|-----0-------------------------------0-------------1--0-|
|---0---0-------------------------0-------------0--------|
|-2-----------------------------2---2---------2---2------|
|-----------------------------3-------------3------------|
|--------------------------------------------------------|

|---------0-------------0--------------------------------|
|-----0-------------3-----------------0-------------1----|
|---0---0---------2---2-----------0-------------0--------|
|-2-------------0---------------2---2---------2---2------|
|-----------------------------3-------------3------------|
|--------------------------------------------------------|




Chorus:

Guitar 1:

   Em    G     D     D
|-----------------------|
|-----------------------|
|--------------7-----7--|
|--2-----5-----7-----7--|
|--2-----5-----5-----5--|
|--0-----3--------------| x2


Guitar 2:

|-----------------------|
|-----------------------|
|--------------7-----10-|
|--2-----5-----7-----x--|
|--2-----5-----5-----8--|
|--0-----3--------------| x2




(Same Verse)




Chorus:

Guitar 1:

   Em    G     D     D    
|-----------------------|  
|-----------------------|  
|--------------7-----7--|  
|--2-----5-----7-----7--|  
|--2-----5-----5-----5--|  
|--0-----3--------------|    

|-----------------------------|  
|-----------------------------|  
|--------------7-----7-----7--|  
|--2-----5-----7-----7-----7--|  
|--2-----5-----5-----5-----5--|  
|--0-----3--------------------|

Guitar 2:

|-----------------------|
|-----------------------|
|--------------7-----10-|
|--2-----5-----7-----x--|
|--2-----5-----5-----8--|
|--0-----3--------------| 

|-----------------------------|  
|-----------------------------|  
|--------------7-----7-----10-|  
|--2-----5-----7-----7-----x--|  
|--2-----5-----5-----5-----8--|  
|--0-----3--------------------|




Bridge:

Guitar 1: (Strum these chords)

  Em7    D     C     C  

|--0-----2-----3-----3--|
|--3-----3-----1-----1--|
|--0-----2-----0-----0--|
|--2-----------2-----2--|
|--2-----------3-----3--|
|--0--------------------|

  Em7    D     C     C     C     C

|--0-----2-----3-----3-----3-----3--|
|--3-----3-----1-----1-----1-----1--|
|--0-----2-----0-----0-----0-----0--|
|--2-----------2-----2-----2-----2--|
|--2-----------3-----3-----3-----3--|
|--0--------------------------------|

Guitar 2: (plays something, but don't know what. Just play Guitar 1. Sorry.)




Chorus:

Guitar 1:

   Em    G     D     D
|-----------------------|
|-----------------------|
|--------------7-----7--|
|--2-----5-----7-----7--|
|--2-----5-----5-----5--|
|--0-----3--------------| x3

|-----------------------|
|-----------------------|
|--------------7-----10-|
|--2-----5-----7-----x--|
|--2-----5-----5-----8--|
|--0-----3--------------|


Guitar 2:

|-----------------------|
|-----------------------|
|--------------7-----10-|
|--2-----5-----7-----x--|
|--2-----5-----5-----8--|
|--0-----3--------------| x2

|-----------------------|
|-----------------------|
|--------------7-----7--|
|--2-----5-----7-----7--|
|--2-----5-----5-----5--|
|--0-----3--------------|

|-----------------------|
|-----------------------|
|--------------7-----10-|
|--2-----5-----7-----x--|
|--2-----5-----5-----8--|
|--0-----3--------------|




End:

Guitar 1:

|--0-------|
|---3------|
|----0-----|
|-----2----|
|------2---|
|-------0--|

Guitar 2:

|-----|
|-----|
|-----|
|--2--|
|--2--|
|--0--|


Comments? naz_eric@yahoo.com
Suggest correction
comments
print report bad tab
3 comments total.
0 reply
warbdaniel 20 Jan 05, 2005 07:00 PM

hmmm cMaj7, does that go before and after a c chord i wonder (hint hint)

0 reply
nazeric 111 Jan 11, 2005 07:00 PM

Corrections! Sorry, I forgot to change some of these mistakes before posting them. =)

Intro:

Guitar 2:

|---------0-------------0--------------------------------|
|-----0-------------3-----------------0-------------1--0-|
|---4---4---------2---2-----------0-------------0--------|
|-2-------------0---------------2---2---------2---2------|
|-----------------------------3-------------3------------|
|--------------------------------------------------------|

Verse:

Guitar 2:

Em7 D C C

|---------0----------------------------------------------|
|-----0-------------------------------0------------------|
|---4---4-------------------------0----------------------|
|-2-----------------------------2---2--------------------|
|-----------------------------3--------------------------|
|--------------------------------------------------------|

|---------0----------------------------------------------|
|-----0-------------------------------0-------------1--0-|
|---4---4-------------------------0-------------0--------|
|-2-----------------------------2---2---------2---2------|
|-----------------------------3-------------3------------|
|--------------------------------------------------------|

|---------0-------------0--------------------------------|
|-----0-------------3-----------------0-------------1----|
|---4---4---------2---2-----------0-------------0--------|
|-2-------------0---------------2---2---------2---2------|
|-----------------------------3-------------3------------|
|--------------------------------------------------------|

Chorus:

Guitar 2:

|-----------------------|
|-----------------------|
|--------------7-----11-|
|--2-----5-----7-----x--|
|--2-----5-----5-----9--|
|--0-----3--------------| x2

Ending Chorus:

Guitar 1:

Em G D D
|-----------------------|
|-----------------------|
|--------------7-----7--|
|--2-----5-----7-----7--|
|--2-----5-----5-----5--|
|--0-----3--------------| x3

|-----------------------|
|-----------------------|
|--------------7-----11-|
|--2-----5-----7-----x--|
|--2-----5-----5-----9--|
|--0-----3--------------|


Guitar 2:

|-----------------------|
|-----------------------|
|--------------7-----11-|
|--2-----5-----7-----x--|
|--2-----5-----5-----9--|
|--0-----3--------------| x2

|-----------------------|
|-----------------------|
|--------------7-----7--|
|--2-----5-----7-----7--|
|--2-----5-----5-----5--|
|--0-----3--------------|

|-----------------------|
|-----------------------|
|--------------7-----11-|
|--2-----5-----7-----x--|
|--2-----5-----5-----9--|
|--0-----3--------------|

0 reply
ccrroocc 10 Mar 29, 2013 10:51 AM

Thank you very much! At last I can play my favorite music on guitar!!

guest
You may want to rate the tab now too:
select rating
Wanna post a correction for this tab? Suggest correction