Oops, an error
Loading. Please wait.

One Of Those Girls tab

version 1
version 1

Whole song

Interactive

6,711 views 12 this week
3 commentsread comments
1 2 3 4 5
x 11
add to favorites
×
Save as Personal and add changes to this tab that will be seen only by you. Learn more ›
×
You can save this tab as Personal to edit and correct it or add notes. All changes will be seen only by you. Learn more »
launch autoscroll
font size
0
reset
how to read this tab
guitar tuner
edit
Autoscroll
slow
fast
+/-
esc
set tempo
stop
Author
Avril Lavigne – One Of Those Girls

Beginning:

e|-------------------|
B|-------------------|
G|--x-x-x-x-x-x-x-x--|
D|--x-x-x-x-x-x-x-x--|
A|--x-x-x-x-x-x-x-x--|
E|-------------------|

Intro: x2

e|-------------------------------------------------------------------|
B|-------------------------------------------------------------------|
G|--6--6--x-x-x-x-6/8--8---8---8-8-----------------------------------|
D|--6--6--x-x-x-x-6/8--8---8---8-8--4--4--x-x-x-x--4-4--4---4---4-4--|
A|--4--4--x-x-x-x-4/6--6---6---6-6--4--4--x-x-x-x--4-4--4---4---4-4--|
E|----------------------------------2--2--x-x-x-x--2-2--2---2---2-2--|


Verse: x2 (with palm muting, just listen the song)

e|--------------------|
B|--------------------|
G|--6---------3-------|
D|--6----4----3----4--|
A|--4----4----1----4--|
E|-------2---------2--|

continued:

e|-----------------|
B|-----------------|
G|-----------------|
D|--3---4---5---6--|
A|--x---x---x---x--|
E|--1---2---3---4--|


Chorus: x2

e|------------------------------------|
B|------------------------------------|
G|--6---8-----------6---8-------------|
D|--6---8---4---4---6---8---4---8--6--|
A|--4---6---4---4---4---6---4---8--6--|
E|----------2---2-----------2---6--4--|


Intro part: x2

e|-------------------------------------------------------------------|
B|-------------------------------------------------------------------|
G|--6--6--x-x-x-x-6/8--8---8---8-8-----------------------------------|
D|--6--6--x-x-x-x-6/8--8---8---8-8--4--4--x-x-x-x--4-4--4---4---4-4--|
A|--4--4--x-x-x-x-4/6--6---6---6-6--4--4--x-x-x-x--4-4--4---4---4-4--|
E|----------------------------------2--2--x-x-x-x--2-2--2---2---2-2--|


Verse: the same


Chorus: the same


Bridge: x2

e|-----------------|
B|-----------------|
G|----------6------|
D|--8---4---6---6--|
A|--8---4---4---6--|
E|--6---2-------4--|

continued: (something that)

e|-------------------------------------------------------|
B|-------------------------------------------------------|
G|--6---6--6-6-6/8-8--8--8-8\----------------------------|
D|--x---x--x-x-x---x--x--x-x---4----4---4-4--4-4--4-4-4--|
A|--4---4--4-4-4/6-6--6--6-6\--x----x---x-x--x-x--x-x-x--|
E|-----------------------------2----2---2-2--2-2--2-2-2--|
 „She’s one of those girls...”

e|-------------------------------------------------------|
B|-------------------------------------------------------|
G|--6---6--6-6-6/8-8--8--8-8\----------------------------|
D|--x---x--x-x-x---x--x--x-x---4----4---4-4-7--7-7-6-----|
A|--4---4--4-4-4/6-6--6--6-6\--x----x---x-x-x--x-x-x-----|
E|-----------------------------2----2---2-2-5--5-5-4-----|
 „Before you know it she’ll be gone...”             ^ pause for a little 
                                                      moment here


Chorus: x1


End:

e|--------------------------------------------------------|
B|--------------------------------------------------------|
G|--6--6--x-x--x------------------------------------------|
D|--6--6--x-x--x-4--4--x-x--x-8--8--x-x--x-4--4-4--6--6-6-|
A|--4--4--x-x--x-4--4--x-x--x-8--8--x-x--x-4--4-4--6--6-6-|
E|---------------2--2--x-x--x-6--6--x-x--x-2--2-2--4--4-4-|

e|--------------------------------------------------------|
B|--------------------------------------------------------|
G|--6--6--x-x--x------------------------------------------|
D|--6--6--x-x--x-4--4--x-x--x-8--8--x-x--x-7--7-7--6--6-6-|
A|--4--4--x-x--x-4--4--x-x--x-8--8--x-x--x-7--7-7--6--6-6-|
E|---------------2--2--x-x--x-6--6--x-x--x-5--5-5--4--4-4-|

e|----------|
B|----------|
G|--6--6-\--|
D|--6--6-\--|
A|--4--4-\--|
E|----------|


Have a good playing! ;)

            
            
Suggest correction
Creating personal tab
Creating personal tab
You can edit any tab online and save it as your Personal.

You can edit, replace or remove any tab part or add personal notes – all changes will be seen only by you.

Personal tabs can be accessed anytime from any device, even offline.
Learn more »
comments
print report bad tab
3 comments total. show 1 bad comment
+2 reply
Guardian_Force 62 May 14, 2007 05:31 AM

nice tab :)

+2 reply
puppylove06 10 Aug 13, 2008 09:31 PM

its alright

guest
You may want to rate the tab now too:
select rating
Wanna post a correction for this tab? Suggest correction