Oops, an error
Loading. Please wait.

Take It Tab

version 2
version 2

Whole song

Interactive

589 views 3 this week
no commentswrite comment
1 2 3 4 5
excellent!
x 1
add to favorites
launch autoscroll
font size
0
reset
how to read this tab
guitar tuner
Tab Pro tools
  • play this tab
  • loop segment
  • change instrument
  • show fretboard
  • metronome
Autoscroll
slow
fast
+/-
esc
set tempo
stop
Contributor
I think TAKE IT is played in Drop D Tuning, same tuning as TAKE ME AWAY

Intro:
e-----------------|-----------------|----------------|-----------------|
B-----------------|-----------------|----------------|-----------------|
G-----------------|-----------------|----------------|-----------------|
D----55555555-----|----99999999-----|1010101010101010|--99----00-------|
A----55555555-----|----99999999-----|1010101010101010|--99----00-------|
D----55555555-----|----99999999-----|1010101010101010|--99----00-------|

e-----------------|-----------------|----------------|-----------------|
B-----------------|-----------------|----------------|-----------------|
G-----------------|-----------------|----------------|-----------------|
D----55555555-----|----99999999-----|1010101010101010|--22----00-------|
A----55555555-----|----99999999-----|1010101010101010|--22----00-------|
D----55555555-----|----99999999-----|1010101010101010|--22----00-------|


Verse
e-----------------|-----------------|----------------|
B-----------------|-----------------|----------------|
G-----------------|-----------------|----------------|
D--------5--------|-------9--10-----|--x-0-2-0-------| x 3
A--------5--------|-------9--10-----|--x-0-2-0-------|
D--------5--------|-------9--10-----|--x-0-2-0-------|
P.M. P.M.


e-----------------|-----------------|
B-----------------|-----------------|
G-----------------|-----------------|
D--------5--------|-------9--10-----|
A--------5--------|-------9--10-----|
D--------5--------|-------9--10-----|
P.M. P.M.


e-----------------|-----------------|----------------|-----------------|
B-----------------|-----------------|----------------|-----------------|
G-----------------|-----------------|----------------|-----------------|
D----55555555-----|----99999999-----|1010101010101010|--99----00-------|
A----55555555-----|----99999999-----|1010101010101010|--99----00-------|
D----55555555-----|----99999999-----|1010101010101010|--99----00-------|

e-----------------|-----------------|----------------|-----------------|
B-----------------|-----------------|----------------|-----------------|
G-----------------|-----------------|----------------|-----------------|
D----55555555-----|----99999999-----|1010101010101010|--22----00-------|
A----55555555-----|----99999999-----|1010101010101010|--22----00-------|
D----55555555-----|----99999999-----|1010101010101010|--22----00-------|


Chorus
e---------------------------------------|
B---------------------------------------|
G-------77---99---44--55--44---77777777-| x2
D--55---77---99---44--55--44---77777777-|
A--55---55---77---22--33--22---55555555-|
D--55-----------------------------------|


e--------------------------------------|---------------------|----------------|
B--------------------------------------|---------------------|----------------|
G--------------------------------------|---------------------|----------------|
D----10 xxx-10-9-xxx-9-7-xxx-7-7-xxx-9-|-10-xxx-10-9-xxx-9-7-|----------------|
A----10-xxx-10-9-xxx-9-7-xxx-7-7-xxx-9-|-10-xxx-10-9-xxx-9-7-|----------------|
D----10-xxx-10-9-xxx-9-7-xxx-7-7-xxx-9-|-10-xxx-10-9-xxx-9-7-|----5///////----|

Verse
Chorus

Bridge (You see me...)
e---------------------------------------------------------|
B---------------------------------------------------------|
G----------------------------------------5-5-5-5-5-5-5-5--|
D--2--2-2--2--2-2----0--0-0--0--0-0---0--5-5-5-5-5-5-5-5--|
A--2--2-2--2--2-2----0--0-0--0--0-0---0--3-3-3-3-3-3-3-3--|
D--2--2-2--2--2-2----0--0-0--0--0-0---0-------------------|
------------ P.M.-----------------------------------------|

e-------------------------|
B-------------------------|
G----------------------12-|
D--2--2-2--2--2-2---9--12-|
A--2--2-2--2--2-2---9--10-|
D--2--2-2--2--2-2---9--10-|
------------ P.M.---------|

Chorus x 4

End

Acoustic Guitar:
e--0--|--0--|--0--|
B--1--|--1--|--1--|
G--0--|--0--|--2--|
D--2--|--0--|--2--|
A--3--|--2--|--0--|
D-----|-----|-----|

Electric: Lead
e------------------------|-------------7------|-------------------7-|
B------------------------|------8---10-----10-|-------------------8-|
G------------------------|--------0------0----|----------------7--0-|
D--------9----10-8----12-|--------------------|------9----10-9------|
A-----10---10------10----|--10----------------|---10---10-----------|
D--10--------------------|-9------------------|-7-------------------|
comments
We did not receive enough feedback on this tab! Please rate:
print report bad tab
1 2 3 4 5
I want to post or [tab]
guest
You may want to rate the tab now too:
select rating
Please do not post tabs as comments. Select "correction" instead!