Oops, an error
Loading. Please wait.

Take Me Away Tab

version 1
version 1

Acoustic

Whole song

Interactive

5,666 views 15 this week
no commentswrite comment
1 2 3 4 5
please rate
add to favorites
launch autoscroll
font size
0
reset
how to read this tab
guitar tuner
Autoscroll
slow
fast
+/-
esc
set tempo
stop
Help us to improve Ultimate-Guitar.com Take our survey!
×
Guitar tab for 
Avril Lavigne 
"Take Me Away" (acoustic version)
by Moses Kim (pickscrape22@hotmail.com)

...pm - palm muting
^^^   - staccato

Drop D

INTR0/VERSE:

e |----------------------------------------------|
B |----------------------------------------------|
G |-----------------------------0---0------------|
D |-------5---5------4---4----2---2------5----4--| 
A |-----2---2------0---0----0----------3----2----|
D |---2----------0-------------------------------|


  
Verse 
                                                  
e |------------------------------------------|
B |------------------------------------------|     
G |-----------7-------2-------5--------------| 
D |---2-------7-------2-------5-------5------|   
A |---2-------5-------0-------3-------5------|   
D |---2-------------------------------5------|
  ..........................................pm         
e |---------------------------0------|    
B |---------------------------0------|    
G |-----------7-------2-------5------|    
D |---2-------7-------2-------5------|    
A |---2-------5-------0-------3------|     
D |---2------------------------------|    
  ......................pm



CHORUS:

e |---0-----0------0------0------0------0------0--|
B |---0-----0------0------0------0------0------0--|
G |---0-----5------7------0------5------7------0--|
D |---2-----5------7------2------5------7------7--|
A |---2-----3------5------2------3------5------7--|
D |---2-------------------2--------------------7--|
      ^     ^             ^      ^        

e |---0-------0-------0-------0-------0-------0---|
B |---0-------0-------0-------0-------0-------0---|
G |---0-------5-------7-------0-------5-------7---|
D |---2-------5-------7-------2-------5-------7---|
A |---2-------3-------5-------2-------3-------5---|
E |---2-----------------------2-------------------| 

e |-----------------------------------------------|
B |-----------------------------------------------|
G |-----------------------------0---0-------------|
D |-------5---5------4---4----2---2------5----4---| 
A |-----2---2------0---0----0----------3----2-----|
D |---2----------0--------------------------------|


  
Verse 
                                                             
e |------------------------------------------|                    
B |------------------------------------------|                  
G |-----------7-------2-------5--------------|                   
D |---2-------7-------2-------5-------5------|                  
A |---2-------5-------0-------3-------5------|   
D |---2-------------------------------5------|
  ..............................................pm         
e |---------------------------0------|    
B |---------------------------0------|    
G |-----------7-------2-------5------|    
D |---2-------7-------2-------5------|    
A |---2-------5-------0-------3------|     
D |---2------------------------------|    
  ......................pm

CHORUS:

e |---0-----0------0------0------0------0------0--|
B |---0-----0------0------0------0------0------0--|
G |---0-----5------7------0------5------7------0--|
D |---2-----5------7------2------5------7------7--|
A |---2-----3------5------2------3------5------7--|
D |---2-------------------2--------------------7--|
      ^     ^             ^      ^        

e |---0-------0-------0-------0-------0-------0---|
B |---0-------0-------0-------0-------0-------0---|
G |---0-------5-------7-------0-------5-------7---|
D |---2-------5-------7-------2-------5-------7---|
A |---2-------3-------5-------2-------3-------5---|
E |---2-----------------------2-------------------| 


BRIDGE:

e |-----------------------------------------------|
B |-----------------------------------------------|
G |---7--------5-----------------5--------7-------|
D |---7--------5--------2--------5--------7-------|
A |---5--------3--------2--------3--------5-------|
D |---------------------2-------------------------|


CHORUS:

e |---0-----0------0------0------0------0------0--|
B |---0-----0------0------0------0------0------0--|
G |---0-----5------7------0------5------7------0--|
D |---2-----5------7------2------5------7------7--|
A |---2-----3------5------2------3------5------7--|
D |---2-------------------2--------------------7--|
      ^     ^             ^      ^        

e |---0-------0-------0-------0-------0-------0---|
B |---0-------0-------0-------0-------0-------0---|
G |---0-------5-------7-------0-------5-------7---|
D |---2-------5-------7-------2-------5-------7---|
A |---2-------3-------5-------2-------3-------5---|
E |---2-----------------------2-------------------| 

 

a couple more times than let ring                                
Suggest correction
Give kudos to tab author, rate the tab!
1 2 3 4 5
comments
print report bad tab
guest
You may want to rate the tab now too:
select rating
Please do not post tabs as comments. Select "correction" instead!