Oops, an error
Loading. Please wait.

Take Me Away Tab

version 1
version 1

Intro

Whole song

Interactive

18,272 views 1 this week
1 commentread comment
1 2 3 4 5
x 14
add to favorites
launch autoscroll
font size
0
reset
how to read this tab
guitar tuner
Autoscroll
slow
fast
+/-
esc
set tempo
stop
Help us to improve Ultimate-Guitar.com Take our survey!
×
-------------------------------------------------------------------------------
			     Take Me Away (Intro) - Avril Lavigne
-------------------------------------------------------------------------------
Tabbed by: Shirl		
Email: xcipher21x@yahoo.com


This is just the intro/outro/verse.


Tuning: Drop D  

    Em  Dsus2  Asus2 Cmaj7     
  e|0	0	0    	0  
  B|0	3	0	0
  G|0	2	2	0
  D|2	0	2	2
  A|2	X	0	3
  E|0	X	X	X	


  Em     Dsus2   Asus2  Cmaj7  Dsus2    
e|---------------------------------------------------------------------------|
B|---------------------------------------------------------------------------|
G|-----00------------00------------------------------------------------------|
D|------------44---2------2----4---------------------------------------------|
A|---2------0----0------3----------------------------------------------------|
D|-2------0------------------0-----------------------------------------------|
     


===============================================================================
Suggest correction
comments
print report bad tab
1 comment total.
0 reply
ibanez89 91 Jul 02, 2005 12:00 AM

Em Dsus2 Asus2 Cmaj7 Dsus2
e|---------------------------------------------------------------------------|
B|---------------------------------------------------------------------------|
G|-----00------------00----0--------------------------------------------------|
D|------------44---2-----------4---------------------------------------------|
A|---2------0----0------3----------------------------------------------------|
D|-2------0------------------0-----------------------------------------------|

guest
You may want to rate the tab now too:
select rating
Wanna post a correction for this tab? Suggest correction